Killswitch Engage - My Last Serenade Chords & Tabs

 

My Last Serenade Chords & Tabs

Killswitch Engage Chords & Tabs

Version: 2 Type: Tab 0 ratings
1 star 2 stars 3 stars 4 stars 5 stars
comments

My Last Serenade Tab

   
Song: My Last Serenade
Artist: Killswitch Engage
Album: Alive or Just Breathing
Tabbed by: Christian / silent_warrior_@hotmail.com

\ - Slide Down
/ - Slide Up
PM - Palm mute
h - Hammer on
~ - Vibrato
( ) - Play the first time only


Tuning - C G C F A D


Intro (clean)
|-----1-----0-----1-|
|----3-----1-----1--|
|---2-----x-----3---|
|--0-----3-----3----|
|-0-----3-----1-----|
|-------------------|


Distortion
|---------------------------------------|
|---------------------------------------|
|---------------------------------------| x4
|-4\0-0-0-4\0-0-0-4\0--0-0--0-0-0-0-0-0-|
|-4\0-0-0-4\0-0-0-4\0--0-0--0-0-0-0-0-0-|
|-4\0-0-0-4\0-0-0-4\0--0-0--0-0-0-0-0-0-|
PM    - -     - -      - -  - - - - - -


Verse
|-------------------------------------------------------|
|-------------------------------------------------------|
|---------------------------------------------3---------| x4
|-3\0-0-1-3-1-0--0-1-3-1-0---3\0-0-1-3-1-0--0-3-0-3-0-5-|
|-3\0-0-1-3-1-0--0-1-3-1-0---3\0-0-1-3-1-0--0-1-0-3-0-5-|
|-3\0-0-1-3-1-0--0-1-3-1-0---3\0-0-1-3-1-0--0---0-3-0-5-|
PM    - - - -    - - - -         - - - -    -   -   -
  

Distortion
|---------------------------------------|
|---------------------------------------|
|---------------------------------------| x4
|-4\0-0-0-4\0-0-0-4\0--0-0--0-0-0-0-0-0-|
|-4\0-0-0-4\0-0-0-4\0--0-0--0-0-0-0-0-0-|
|-4\0-0-0-4\0-0-0-4\0--0-0--0-0-0-0-0-0-|
PM    - -     - -      - -  - - - - - -


Pre-chorus
|-------------------------------------------------------------------|
|-------------------------------------------------------------------|
|------------------------------------------10-9-7-9-5/7-5-3/5-3-----| x4
|-(3)-0--0-0-0--0-0-3\0--0-0-3\0--0-0-3\0--10-9-7-9-5/7-5-3/5-3-0h3-|
|-(3)-0--0-0-0--0-0-3\0--0-0-3\0--0-0-3\0--8--7-5-7-3/5-3-1/3-1-0h3-|
|-(3)-0--0-0-0--0-0-3\0--0-0-3\0--0-0-3\0-----------------------0h3-|
PM       - - -  - -      - -      - -
 

Chorus
|-----------------------------------------------------------------|
|-6-6-6-6--5-5-5--6-6-6-6--5-5-5--6-6-6-6-------------------------|
|-5-5-5-5--5-5-5--5-5-5-5--5-5-5--5-5-5-5-------------------------| x4
|-3-3-3-3--3-3-3--3-3-3-3--3-3-3--3-3-3-3--0-0--2-3-2--0-0--0-2-3-|
|-3-3-3-3--3-3-3--3-3-3-3--3-3-3--3-3-3-3-------------------------|
|-----------------------------------------------------------------|
PM                                         - -         - -

[ Tab from: http://www.guitartabs.cc/tabs/k/killswitch_engage/my_last_serenade_tab_ver_2.html ]
Bridge
|----------------------------------------------------------------------|         
|----------------------------------------------------------------------|        
|----------------------------------------------------------------------| x4      
|-(0-0)--10-12--------0-0-0-0-0-0-0---0-0-0-0-0-0-0---0-0-0-0-0-0-0--0-|        
|-(0-0)--------10-----0-0-0-0-0-0-0---0-0-0-0-0-0-0---0-0-0-0-0-0-0--0-|       
|-(0-0)-----------8~--0-0-0-0-0-0-0---0-0-0-0-0-0-0---0-0-0-0-0-0-0--0-|        
PM - -                - - - - - - -   - - - - - - -   - - - - - - -


Verse - Guitar 1
|-------------------------------------------------------|
|-------------------------------------------------------|
|---------------------------------------------3---------| x4
|-3\0-0-1-3-1-0--0-1-3-1-0---3\0-0-1-3-1-0--0-3-0-3-0-5-|
|-3\0-0-1-3-1-0--0-1-3-1-0---3\0-0-1-3-1-0--0-1-0-3-0-5-|
|-3\0-0-1-3-1-0--0-1-3-1-0---3\0-0-1-3-1-0--0---0-3-0-5-|
PM    - - - -    - - - -         - - - -    -   -   -


Verse - Guitar 2 (not sure about this part)
|---------------------------------------------------|
|-3-3-3-3-3-3-3-3--6-6-6-6-6-6-6-6--3-3-3-3-3-3-3-3-|
|---------------------------------------------------| x1
|-0-0-0-0-0-0-0-0--3-3-3-3-3-3-3-3--0-0-0-0-0-0-0-0-|
|---------------------------------------------------|
|---------------------------------------------------|

   
Verse
|-------------------------------------------------------|
|-------------------------------------------------------|
|---------------------------------------------3---------| x4
|-3\0-0-1-3-1-0--0-1-3-1-0---3\0-0-1-3-1-0--0-3-0-3-0-5-|
|-3\0-0-1-3-1-0--0-1-3-1-0---3\0-0-1-3-1-0--0-1-0-3-0-5-|
|-3\0-0-1-3-1-0--0-1-3-1-0---3\0-0-1-3-1-0--0---0-3-0-5-|
PM    - - - -    - - - -         - - - -    -   -   -


Pre-chorus
|-------------------------------------------------------------------|
|-------------------------------------------------------------------|
|------------------------------------------10-9-7-9-5/7-5-3/5-3-----| x4
|-(3)-0--0-0-0--0-0-3\0--0-0-3\0--0-0-3\0--10-9-7-9-5/7-5-3/5-3-0h3-|
|-(3)-0--0-0-0--0-0-3\0--0-0-3\0--0-0-3\0--8--7-5-7-3/5-3-1/3-1-0h3-|
|-(3)-0--0-0-0--0-0-3\0--0-0-3\0--0-0-3\0-----------------------0h3-|
PM       - - -  - -      - -      - -


Chorus / Outro
|-----------------------------------------------------------------|     |------|
|-6-6-6-6--5-5-5--6-6-6-6--5-5-5--6-6-6-6-------------------------|     |------|
|-5-5-5-5--5-5-5--5-5-5-5--5-5-5--5-5-5-5-------------------------| x2  |------| x1 (Last note)
|-3-3-3-3--3-3-3--3-3-3-3--3-3-3--3-3-3-3--0-0--2-3-2--0-0--0-2-3-|     |--10--|
|-3-3-3-3--3-3-3--3-3-3-3--3-3-3--3-3-3-3-------------------------|     |---8--|
|-----------------------------------------------------------------|     |---8--|
PM                                         - -         - -
Comments