Killswitch Engage - My Last Serenade Chords & Tabs

 

My Last Serenade Chords & Tabs

Killswitch Engage Chords & Tabs

Version: 1 Type: Tab 0 ratings
1 star 2 stars 3 stars 4 stars 5 stars
comments

My Last Serenade Tab

song...my last serenade
artist...killswitch engage
tabed by teel
drop c tuning

opening  preety part
---------------------
---------------------
-10-10-10---10-10-10-
-10-10-10---10-10-10-
-8--8--8----8--8--8--
-0--8--8----0--8--8--

first hard part

-----------------------------------------
-----------------------------------------
-----------------------------------------
-----------------------------------------
-1-0-0-0--1-0-0-0--1-0-0-0--111111-------
-1-0-0-0--1-0-0-0--1-0-0-0--111111-------
 p        p        p

lyrics come in here
--------------------------------------------------
--------------------------------------------------
--------------------------------------------------
--------------------------------------------------
-0-0-0-0-1-0-0-0--0-0-0-1-0--0-0-0-0-1-0-0-8-0-0-6
-0-0-0-0-1-0-0-0--0-0-0-1-0--0-0-0-0-1-0-0-8-0-0-6
[ Tab from: http://www.guitartabs.cc/tabs/k/killswitch_engage/my_last_serenade_tab.html ]
continued  from above^
-------------------------------------------------
-------------------------------------------------
-------------------------------------------------
-------------------------------------------------
-0-0-3-0-0-6-0-3------------ then repeat this again
-0-0-3-0-0-6-0-3------------
  
next  part   "from zero  to serenity!"

---------------------------------------------------
---------------------------------------------------
---------------------------------------------------
-----------------------------10-10-9-10-5/7-7-7-5--
-3-0-0-0-3-0-0-0-3-0-0-0-3-0-8--8--7-8--3/5-5-5-3-3
-3-0-0-0-3-0-0-0-3-0-0-0-3-0----------------------3
repeat ^

chours
-----3--------------------------
-----6--------------------------
-----5-10-----------------------
-----3-10-----2-2-3-----2-3-2---
-3-3-3-8--3-3-------3-3---------
-3-3-3-8------------------------
This is my last serenade


there is only 1 other part i left out
sorry i have not figurted it out yet
but what i posted here sounds pretty right
when i play it along with the song 
Comments