Killswitch Engage - Life To Lifeless Chords & Tabs

 

Life To Lifeless Chords & Tabs

Killswitch Engage Chords & Tabs

Version: 4 Type: Tab 0 ratings
1 star 2 stars 3 stars 4 stars 5 stars
comments

Life To Lifeless Tab

   
Life To Lifeless                                                                     
http://www.kse-france.fr.st/

Titre: Life to Lifeless
Groupe: Killswitch Engage
Album: Alive or Just Breathing
Par Dillinger eskape Boy/    OblivionChild@hotmail.com

Voila la premiere Tabs de KsE ke je fait.Elle est a 95 % juste je pense !!!! tout 
est le bien venu .

Tuning: C G C F A D

///X - gratter les cordes avec le mediator
PM -Mute
* - Harmonique
\ - slide vers le bas
/ - slide vers le haut

Pour le rythme caller vous avec le skeud .La mise en place n'est pas trop difficile

Intro - Guitare 1
|-------------------------------------------------------------|
|-------------------------------------------------------------|
|-------------------------------------------------------------| x6
|-0-0---0-0---0-0-0-0-0---0-0---0-0---0-0-0-0-0---------------|
|-0-0---0-0---0-0-0-0-0---0-0---0-0---0-0-0-0-0---------------|
|-0-0---0-0---0-0-0-0-0---0-0---0-0---0-0-0-0-0---------------|
PM- -   - -   - - - - -   - -   - -   - - - - -

Guitare 2
|------------------------|
|------------------------|
|------------------------| x4
|---------5---6---0------|
|---------5---6---0------|
|-///X--5---6----0-------|

Couplet (pour le rythme cé avec le skeud lol !)
|------------------------------------------------------------|
|------------------------------------------------------------|
|------------------------------------------------------------| x4
|------ 5-0-0-0-6-0-0-0-12--0--0--0--0-0-0--0--0-------------|
|-10\\\5-0-0-0-6-0-0-0-12--0--0--0--0-0-0--0--0--------------|
|-10\\\5-0-0-0-6-0-0-0-12--0--0--0--0-0-0--0--0--------------|
PM       - - - -   - -        -  -  -  - - -  -  -

Mini-interlude
|---------------------------------------------------|
|---------------------------------------------------|
|---------------------------------------------------|x2
|-0-0---0-0---0-0-0-0-0-0---0-0---0-0---0-0-0-0-0-0-|
|-0-0---0-0---0-0-0-0-0-0---0-0---0-0---0-0-0-0-0-0-|
|-0-0---0-0---0-0-0-0-0-0---0-0---0-0---0-0-0-0-0-0-|
PM- -   - -   - - - - - -   - -   - -   - - - - - -

Couplet
|------------------------------------------------------------------------|
|------------------------------------------------------------------------|
|------------------------------------------------------------------------| x2
|-------0-0---0-0---0-0-0-0-0-0---0-0---0-0---0-0-0-0-0-0----------------|
|-10\\\--0-0---0-0---0-0-0-0-0-0---0-0---0-0---0-0-0-0-0-0---------------|
|-10\\\--0-0---0-0---0-0-0-0-0-0---0-0---0-0---0-0-0-0-0-0---------------|
PM     - -   - -   - - - - - -   - -   - -   - - - - - -
[ Tab from: http://www.guitartabs.cc/tabs/k/killswitch_engage/life_to_lifeless_tab_ver_4.html ]
Couplet
|----------------------------------------------------------------|
|----------------------------------------------------------------|
|----------------------------------------------------------------| x4
|---------5-0-0-0-6-0-0-0-12--0--0--0--0-0-0--0--0---------------|
|-10\\\--5-0-0-0-6-0-0-0-12--0--0--0--0-0-0--0--0----------------|
|-10\\\--5-0-0-0-6-0-0-0-12--0--0--0--0-0-0--0--0----------------|
PM        - - -   - -        -  -  -  - - -  -  -

Refrain (Rythme avec tjrs avec le skeud / pour ma part je ne joue pas les harmoniques 
sont assez difficiles a choper)
|-------------------------------------------------------------------------|
|--------------------------------------------------------*9*9*9*9---------|
|----10---9-------5----10--9-------2----------------*9*9*9*9--------------| x2
|-/-----------0-0--3------------0-0--0------------------------------------|
|-/---8---7--0-0--3-----8--7--0-0--0---------- ---------------------------|
-/------------0-0--3------------0-0--0------------------------------------|
PM           -  -                    - -


Pont
|------------------------------------------------------------------------------|
|------------------------------------------------------------------------------|
|------------------------------------------------------------------------------|
|------------------------------------------------------------------------------| x4
|--------------------0-0-0-0-0-0-0-0----------------------3--8-----------------|
|-8-5---------------0-0-0-0-0-0-0-0---8-5---------------3--8-------------------|
|-------8-5-/-3---0-0-0-0-0-0-0-0-----------8-5-/-3----3--8--------------------|
PM                   - - - - - - - - -  -


Pré couplet
   Guitare 1                          Guitare 2 (reprendre la rythmique de l'intro)
    |-----------|                        |--------------------------|
    |-----------|                        |--------------------------|
    |-----------|                        |--------------------------|
    |-5---6---0-|                        |-0-0--0-0--0-0-0-0--------|
|   |-5---6---0-|                        |-0-0--0-0--0-0-0-0--------|
    |-5---6---0-|                        |-0-0--0-0--0-0-0-0--------|
                                                 PM     - -  - -  - - - -

  Il faut ensuite reprendre une fois le couplet 2 fois le refrain et une derniere fois 
pont toutefois sur cette partie une des guitare joue la
 partie suivante

 |------------------------------------------------------------|
 |--10---13----17---------------------------------------------|
 |------------------------------------------------------------|
 |--7-----10----14--------------------------------------------|
 |------------------------------------------------------------|
 |------------------------------------------------------------|

Voilou KsE Powaaaaaaaaaaaaaaaaaaaaaaaaaaaaaaa en plus je les ai vu au Fury  Fest ^_^
Comments