Killswitch Engage - Irreversal Chords & Tabs

 

Irreversal Chords & Tabs

Killswitch Engage Chords & Tabs

Version: 1 Type: Tab 0 ratings
1 star 2 stars 3 stars 4 stars 5 stars
comments

Irreversal Tab

   
Band- Killswitch Engage
Song- Irreversal

C G C F A D

Key

0:00	Time the Riff Comes Into The Song
(G1)	Guitar One or Guitar Two
* 	Palm Mute
/	Slide Down
H	Hammer On 

  0:00
D|-----------------------| (G1+G2)
A|-----------------------|
F|-----------------------|
C|--11------11--5--8--2--|
G|--11------11--5--8--2--|
C|--11------11--5--8--2--| X3

  0:12
D|-------------------| (G1+G2)
A|-------------------|
F|-------------------|
C|--11--5--8--2--22--|
G|--11--5--8--2--22--|
C|--11--5--8--2--22--| X4
    *   *  *  *  **
  0:22  
D|-------------------------------------------------------| (G1+G2)
A|-------------------------------------------------------|
F|------------5-5-55--2-2-22------------7-7-77-10101010--|
C|----2-------5-5-55--2-2-22----2-------7-7-77-10101010--|
G|----2-------3-3-33--0-0-00----2-------5-5-55-8-8-8-8---|
C|--0-2-----------------------0-2------------------------| X2
    *                         *
  0:28
D|-----------| (G3)
A|-----------|
F|---9-------|
C|-----9-----|
G|-------10--|
C|-----------|

  0:31
D|------------------------------------------------------| (G3)
A|------------------------------------------------------|
F|------------------------------------------------------|
C|------------------------------------------------------|
G|-5h7-8-7-5-77-875-33330000-5h7-8-7-5-77-875-55558888--|
C|------------------------------------------------------|

  0:41
D|-----------------------------------------| (G1+G2)
A|------------------555--------------------|
F|------------444555---555444--------------|
C|---------------------------555222222000--|
G|--5h7777777------------------------------|
C|-----------------------------------------|
[ Tab from: http://www.guitartabs.cc/tabs/k/killswitch_engage/irreversal_tab.html ]
D|-----------------------------------------| 
A|------------------555666555666-----------|
F|------------444555------------555444555--|
C|-----------------------------------------|
G|--5h7777777------------------------------|
C|-----------------------------------------| X2
  
  1:01  
D|-------------------------------------------------------------------------------| (G1+G2)
A|-------------------------------------------------------------------------------|
F|-------------------------------------------------------------------------------|
C|----00-000-000---00-000-000---------------00-000-000---00-000-000-7-5-3-5-2-3--|
G|--7-00-000-000-7-00-000-000--8-7-8-7-5--7-00-000-000-7-00-000-000-7-5-3-5-2-3--|
C|----00-000-000---00-000-000---------------00-000-000---00-000-000-7-5-3-5-2-3--| X2
      ** *** ***   ** *** ***               ** *** ***   ** *** *** * * * * * *
  1:21
D|-------------------------------------------------------| (G1+G2)
A|-------------------------------------------------------|
F|------------5-5-55--2-2-22------------7-7-77-10101010--|
C|----2-------5-5-55--2-2-22----2-------7-7-77-10101010--|
G|----2-------3-3-33--0-0-00----2-------5-5-55-8-8-8-8---|
C|--0-2-----------------------0-2------------------------| X2
    *                         *
  1:26
D|-----------| (G3)
A|-----------|
F|---9-------|
C|-----9-----|
G|-------10--|
C|-----------| 

  1:30
D|------------------------------------------------------| (G3)
A|------------------------------------------------------|
F|------------------------------------------------------|
C|------------------------------------------------------|
G|-5h7-8-7-5-77-875-33330000-5h7-8-7-5-77-875-55558888--|
C|------------------------------------------------------| 

  1:44
D|-----------------------------------------| (G1+G2)
A|------------------555--------------------|
F|------------444555---555444--------------|
C|---------------------------555222222000--|
G|--5h7777777------------------------------|
C|-----------------------------------------|

D|-----------------------------------------|
A|------------------555666555666-----------|
F|------------444555------------555444555--|
C|-----------------------------------------|
G|--5h7777777------------------------------|
C|-----------------------------------------| x2

  1:59
D|----------------------------------------------------------------------------| (G1+G2)
A|-----------------------------656--------------------------------------------|
F|---------------------------------545----------------------------------------|
C|----00-000-000---00-000-000------------00-000-000---00-000-000-7-5-3-5-2-3--|
G|--7-00-000-000-7-00-000-000----------7-00-000-000-7-00-000-000-7-5-3-5-2-3--|
C|----00-000-000---00-000-000------------00-000-000---00-000-000-7-5-3-5-2-3--| X2
      ** *** ***   ** *** ***            ** *** ***   ** *** *** * * * * * *
  2:19
D|-----| (G1)
A|--9--|
F|--9--|
C|--x--|
G|--7--|
C|-----|

  2:19
D|-----------------------------------------------------| (G2)
A|----99-99----99--------------99-99----99-------------|
F|--99999999x9999xx9-99-9-99x99999999x9999xx9-99-9-99--|
C|--xxxxxxxxx7777xx7-77-7-77xxxxxxxxxx7777xx7-77-7-77--|
G|--77777777x7777xx7-77-7-77x77777777x7777xx8-88-8-88--|
C|-----------------9-99-9-99---------------------------| X2

  2:30
D|-----------------------------------------------------| (G1)
A|-----------------------------------------------------|
F|-----------------------------------------------------|
C|-----------------------------------------------------|
G|--7--------9-----11---11---0-------------------------|
C|-----------------------------------------------------|

  2:40
D|----------------------------------------------| (G1)
A|--2-5-4----2-5-4----------2-5-4-0----2-5-4-0--|
F|----------------------------------------------|
C|----------------------------------------------|
G|-/--------------------------------------------|
C|-/--------------------------------------------| X2

  3:03
D|----------------------| (G1+G2)
A|----------------------|
F|----------------------|
C|-/--0---3---6---2-22--|
G|-/--0---3---6---2-22--|
C|-/--0---3---6---2-22--| Until the End
      *   *   *   * **
Comments