Killswitch Engage - Irreversal Chords & Tabs

 

Irreversal Chords & Tabs

Killswitch Engage Chords & Tabs

Version: 1 Type: Bass Tab 0 ratings
1 star 2 stars 3 stars 4 stars 5 stars
comments

Irreversal Bass Tab

   
Band- Killswitch Engage
Song- Irreversal

Tuning: C G C F

Riff 1 (0:02)
F |----------------|  |---------|
C |----------------|  |---------|
G |----------------|  |---------|
C |--0-1p0-00-1p0--|x3|--22-22--|

Riff 2 (0:12)
F |---------------|
C |---------------|
G |--3------------|
C |----5-7-2-2-2--|

Riff 3 (0:22)
F |---------------------------|
C |---------------------------|
G |---------------------------|
C |--2-2-2-0~-5~-2-2-2-0~-3~--|
[ Tab from: http://www.guitartabs.cc/tabs/k/killswitch_engage/irreversal_btab.html ]
Riff 4 (0:41) (very hard to hear)
F |--------------------------------|
C |--------------------------------|
G |---------00-33-222--------------|
C |--222222-----------5-0-5-7-3-7--|

Riff 5 (1:01)
F |---------------------------------|
C |---------------------------------|
G |--------------------0-5-7-8-5-7--|
C |--2-000000-2-000000--------------|

F |----------------------------------|
C |----------------------------------|
G |----------------------------------|
C |--2-000000-2-000000-10-8-5-7-3-7--|

Riff 3 (1:20)
Riff 4 (1:39)
Riff 5 (1:59)
Riff 2 (2:23)

Riff 6 (3:13)
F |-----------------------------|
C |-----------------------------|
G |-----------------------------|
C |--10~-12~-12-14-10-7~-12-14--|

Riff 2 (3:47)
Comments