Killswitch Engage - Inhale Chords & Tabs

 

Inhale Chords & Tabs

Killswitch Engage Chords & Tabs

Version: 1 Type: Tab 0 ratings
1 star 2 stars 3 stars 4 stars 5 stars
comments

Inhale Tab

Band-Killswitch Engage
Song-Inhale
Album-The End Of Heartache
Instrument-Guitar

Tuning- CGCFAD

This is the first instrumental on the album and the better one is my opinion. This song is just beautiful.
Just figure out the strumming patterns.
[ Tab from: http://www.guitartabs.cc/tabs/k/killswitch_engage/inhale_tab.html ]
Riff 1 (Gtr.1)
D|-3--3-3-3--3---3--3-3-3--3---3--3-3-3--3---3--3-3-3--3-|
A|-3--3-3-3--3---3--3-3-3--3---3--3-3-3--3---3--3-3-3--3-|
F|-2--2-2-2--2---0--0-0-0--0---2--2-2-2--2---0--0-0-0--0-|
C|-0--0-0-0--0---2--2-2-2--2---0--0-0-0--0---------------|
G|---------------3--3-3-3--3-----------------------------|
C|-------------------------------------------------------|

Riff 1 (Gtr.2)
D|---------------------------------------------------------|
A|-8-8-10-8-8--8-8-12-10-8--8-8-10-8-12-10-8--7-7h8-3-3-3--|
F|--0-0-0-0-----0-0-0-0-0----0-0-0-0-----------0---0-0-0-0-|
C|---------------------------------------------------------|
G|---------------------------------------------------------|
C|---------------------------------------------------------|

Riff 2 (Gtr.2)
D|-3~-------|
A|---3~-----|
F|-----2~---|
C|----------|
G|----------|
C|----------|
Comments