Killswitch Engage - In The Unblind Chords & Tabs

 

In The Unblind Chords & Tabs

Killswitch Engage Chords & Tabs

Version: 1 Type: Tab 0 ratings
1 star 2 stars 3 stars 4 stars 5 stars
comments

In The Unblind Tab

   
Killswitch Engage - In the Unblind

Tuning Low To High - D,G,C,F,A,D

# - Natural Harmonic
* - Pinch Harmonic
/ - Slide Up
\ - Slide Down
P.M - Palm Mute


Verse
 Guitar 1
|-----------------------------------------|
|-----------------------------------------|
|-----------------------------------------|
|-----------------------------------------|
|--7-----10---9----14---9----10----1412--|
|----000---00---00---00---00---000--------|
|P.M ---   --   --   --   --   ---
|
|Guitar 2
|-----------------------------------------|
|-----------------------------------------|
|-----------------------------------------|
|-----------------------------------------|
|--3-----7----5----10---5----7-----109---|
|----000---00---00---00---00---000--------|
 P.M ---   --   --   --   --   ---


Guitar 1
|--------------------------------------------|
|--------------------------------------------|
|--------------------------------------------|
|--------------------------------------------|
|--7-----10---9----14---9----10----12h14p12--|
|----000---00---00---00---00---000-----------|
|P.M ---   --   --   --   --   ---
|
|Guitar 2
|--------------------------------------------|
|--------------------------------------------|
|--------------------------------------------|
|--------------------------------------------|
|--3-----7----5----10---5----7-----9h-10p-9--|
|----000---00---00---00---00---000-----------|
 P.M ---   --   --   --   --   ---


Verse 2
 Guitar 1
|-----------------------------------------------------------------|
|-----------------------------------------------------------------|
|-----------------------------------------------------------------|
|--------------------------------------------------------------4--|
|--2------------------------3/5--2---------------------5-2-3-5----|
|--0-000-000-000-000-000--0-3/5--0-000-000-000-000--0-------------|
|P.M --- --- --- --- ---  -        --- --- --- ---  -
|
|Guitar 2
|-----------------------------------------------------------------|
|-----------------------------------------------------------------|
|--------------------------------------------------------------2--|
|------------------------------------------------------5-2-4-5----|
|--2------------------------3/5--2--------------------------------|
|--0-000-000-000-000-000--0-3/5--0-000-000-000-000--0-------------|
 P.M --- --- --- --- ---  -        --- --- --- ---  -

[ Tab from: http://www.guitartabs.cc/tabs/k/killswitch_engage/in_the_unblind_tab.html ]
Guitar 1
|-----------------------------------------------------------------|
|-----------------------------------------------------------------|
|-----------------------------------------------------------------|
|--------------------------------5-----------------------------4--|
|--2------------------------3/5--3-333-333-333-333--3--5-2-3-5----|
|--0-000-000-000-000-000--0-3/5-----------------------------------|
|P.M --- --- --- --- ---  -        --- --- --- ---  -
|
|Guitar 2
|-----------------------------------------------------------------|
|-----------------------------------------------------------------|
|--------------------------------------------------------------2--|
|--------------------------------5---------------------5-2-4-5----|
|--2------------------------3/5--3-333-333-333-333--3-------------|
|--0-000-000-000-000-000--0-3/5-----------------------------------|
 P.M --- --- --- --- ---  -        --- --- --- ---  -


Chorus
 Both Guitars
|------------------------------------0--|
|------------------------------------0--|
|---------------------------------------|
|--5--2--5------------5--2--5-----------|
|--3--0--3--5--2------3--0--3--5--2-----|
|-----------3--0---------------3--0-----|
 P.M        -                  -


|-------------------------------------0-|
|-------------------------------------0-|
|---------------------------------------|
|--5--2--5---------7*--5--2--5----------|
|--3--0--3--5--2-------3--0--3--5--2----|
|-----------3--0----------------3--0----|
 P.M        -                    -


Verse

Verse 2

Chorus


Break
 Both Guitars
|---------------|
|---------------|
|---------------|
|---------------|
|----------2-2--|
|---000000-0-0--|
 P.M------ - -

 Guitar 1
|--------------------|    |--------------------|
|--------------------|    |--------------------|
|--------------------|    |--------------------|
|--------------------|    |--------------------|
|----------2-######--|    |-5/6\5---5/5---4/5--|
|---000000-0-333333--| X3 |-3/4\3-0-3/2-0-2/3--|
|P.M------ -              |       -     -
|                         |
|Guitar 2                 |
|--------------------|    |--------------------|
|--------------------|    |--------------------|
|--------------------|    |--------------------|
|--------------------|    |--------------------|
|----------2---------|    |-5/6\5---5/5---4/5--|
|---000000-0---------| X3 |-3/4\3-0-3/2-0-2/3--|
 P.M------ -                      -     -



Break 2
 Both Guitars
|----------------------------------|
|----------------------------------|
|----------------------------------|
|---------6\5--------6\5-----------|
|---2-4-5-4\3--2-4-5-4\3--2-4-5\4--|
|---0-2-3------0-2-3------0-23\2--|
 P.M- - -      - - -      - -



Guitar 1
|--------------------|    |--------------------|
|--------------------|    |--------------------|
|--------------------|    |--------------------|
|--------------------|    |--------------------|
|----------2-######--|    |-5/6\5---5/5---4/5--|
|---000000-0-333333--| X3 |-3/4\3-0-3/2-0-2/3--|
|P.M------ -              |       -     -
|                         |
|Guitar 2                 |
|--------------------|    |--------------------|
|--------------------|    |--------------------|
|--------------------|    |--------------------|
|--------------------|    |--------------------|
|----------2---------|    |-5/6\5---5/5---4/5--|
|---000000-0---------| X3 |-3/4\3-0-3/2-0-2/3--|
 P.M------ -                      -     -



Outro
 Guitar 1
|--------------------|    |--------------------|
|--------------------|    |--------------------|
|--------------------|    |--------------------|
|--------------------|    |--------------------|
|----------2--3-3-3--|    |-5/6\5---5/5---4/5--|
|---000000-0--1-1-1--| X3 |-3/4\3-0-3/2-0-2/3--|
|P.M------ -  - - -       |       -     -
|                         |
|Guitar 2                 |
|--------------------|    |--------------------|
|--------------------|    |--------------------|
|--------------------|    |--------------------|
|--------------------|    |--------------------|
|----------2---------|    |-5/6\5---5/5---4/5--|
|---000000-0---------| X3 |-3/4\3-0-3/2-0-2/3--|
 P.M------ -                      -     -



End
 Both Guitars
|-----|
|-----|
|-----|
|-----|
|--2--|
|--0--|
Comments