Killswitch Engage - Hope Is Chords & Tabs

 

Hope Is Chords & Tabs

Killswitch Engage Chords & Tabs

Version: 1 Type: Tab 0 ratings
1 star 2 stars 3 stars 4 stars 5 stars
comments

Hope Is Tab

Band: Killswitch Engage
Album: The End Of Heartache
Song: Hope Is...
Instrument-Guitar

Tuning- CGCFAD

~ -Let note ring
\ -Slide up
/ -Slide down

I know there are octaves in the chorus. Im working on that now.

Intro (let notes ring)
|--------------------|
|--------------------|
|--------------------|
|-10~---7~---3~---1~-|
|-8~----7~---3~---1~-|
|-8~----7~---3~---1~-|

Intro 2
|---------------------------------------------------------------|
|---------------------------------------------------------------|
|---------------------------------------------------------------|
|---------7-----5/7-------------8-----7-------------------------|
|-0-------5-----3/5-------------6-----5-----6-----5-------------|
|-0-0-0-0---0-0-----0-0-0-0-0-0---0-0---0-0-6-0-0-5-0-0-3-5-3-0-|
PM  . . .   . .     . . . . . .   . .   . .   . .   . . . . . .

Intro 2 (Gtr.2) (play after playing above riff twice)
|---------------------------------------------------------------|
|---------------------------------------------------------------|
|---------7-----5/7-------------8-----7-------------------------|
|---------x-----x-x-------------x-----x-------------------------|
|-0-------5-----3/5-------------6-----5-----6-----5-------------|
|-0-0-0-0---0-0-----0-0-0-0-0-0---0-0---0-0-6-0-0-5-0-0-3-5-3-0-|
PM  . . .   . .     . . . . . .   . .   . .   . .   . . . . . .

Verse
|--------------------------------------------------------------|
|--------------------------------------------------------------|
|--------------------------------------------------------------|
|--------------------------3--5--------------------------3-----|
|-1-3-2-3-1-3-0-3-1-3-2-3--1--3-1-3-2-3-1-3-0-3-1-3-2-3--1---1-|
|-1-3-2-3-1-3-0-3-1-3-2-3-0--0--1-3-2-3-1-3-0-3-1-3-2-3-0--0-1-|
PM. . . . . . . . . . . . .  .  . . . . . . . . . . . . .  .

Pre-Chorus
|--------------------------------------------------------|
|--------------------------------------------------------|
|--------------------------------------------------------|
|-5-----------7-----------7/8-7/8-7\---------------------|
|-3-----------5-----5-----5/6-5/6-5\---------------------|
|---0-0-3-0-0---0-0-5-0-0------------0-0-0--0-0-0--0-0-0-|
PM  . .   . .   . .   . .            . . .  . . .  . . .

Chorus (Gtr.2)
|------------------------------------------------|
|------------------------------------------------|
|------------------------------------------------|
|---------------------------------10-10-10-10-10-|
|-0-0-0-0-0-3-3-3-3h5--8-8-8-8-8--8--8--8--8--8--|
|-0-0-0-0-0-3-3-3-3h5--8-8-8-8-8--8--8--8--8--8--|

Chorus (Gtr.2) (Con't)
|--------------------------------------------|
|--------------------------------------------|
|--------------------------------------------|
|-----------------------------------------10-|
|-0-0-0-0-0-3-3-3-3h5--8-8-8-8-8--888-8---8--|
|-0-0-0-0-0-3-3-3-3h5--8-8-8-8-8--888-8---8--|
PM                                ...
[ Tab from: http://www.guitartabs.cc/tabs/k/killswitch_engage/hope_is_tab.html ]
Interlude
|---------------------------------------------------|
|---------------------------------------------------|
|-----10-----10-----9-----9-----7-----7-----5-----5-|
|--0-0----0-0----0-0---0-0---0-0---0-0---0-0---0-0--|
|-0-0----0-0----0-0---0-0---0-0---0-0---0-0---0-0---|
|---------------------------------------------------|

Interlude 2
|-----------------------------------------------------|
|-----------------------------------------------------|
|-9-----------9---10-----------10--9-----------9---10-|
|-9-----------9---10-----------10--9-----------9---10-|
|-7-----------7---8------------8---7-----------7---8--|
|---0-0-0-0-0---0----0-0-0-0-0---0---0-0-0-0-0---0----|
PM  . . . . .   .    . . . . .   .   . . . . .   .
Interlude 2 (Con't)
|-------------------------------------------------|
|-------------------------------------------------|
|-----------9---7-----------7---9-----------7---5-|
|-----------9---7-----------7---9-----------7---5-|
|-----------7---5-----------5---7-----------5---3-|
|-0-0-0-0-0---0---0-0-0-0-0---0---0-0-0-0-0---0---|
PM. . . . .   .   . . . . .   .   . . . . .   .

Interlude 2 Fill
|-------------------------------|
|-------------------------------|
|-------------------------------|
|-------------------------------|
|-----------7h8p7-----7h8p7-----|
|-0-0-0-0-0-------0-0-------0-0-|
PM. . . . .       . .       . .

Interlude 2 (Gtr.2) (Not correct strumming patterns, but you get the point)
|----------------------------------------------------------|
|----------------------------------------------------------|
|-7-7777777/9-9/10-10\9-9999999/10-10/-12\10-10101010101010|
|-x-xxxxxxx-x-x-x--x--x-xxxxxxx-x--x----x-x--x-x-x-x-x-x-x-|
|-5-5555555/7-7/8--8-\7-7777777/8--8-/-10\8--8-8-8-8-8-8-8-|
|----------------------------------------------------------|
Interlude 2 (Gtr.2) (Con't)
|----------------------------------|
|----------------------------------|
|-10/12-12/14-14\12-12-12-12-12-12-|
|-x--x--x--x--x--x--x-x-x-x-x-x-x--|
|-8-/10-10/12-12\10-10101010101010-|
|----------------------------------|

Outro
|---------------------------------------------------------------|
|---------------------------------------------------------------|
|---------------------------------------------------------------|
|----------------------------------------------------------3--5-|
|-1-3-2-3-1-3-0-3-1-3-2-3-1-3-0-3-1-3-2-3-1-3-0-3-1-3-2-3--1--3-|
|-1-3-2-3-1-3-0-3-1-3-2-3-1-3-0-3-1-3-2-3-1-3-0-3-1-3-2-3-0--0--|
PM. . . . . . . . . . . . . . . . . . . . . . . . . . . . .  .

|----------------------------------------------------------------|
|----------------------------------------------------------------|
|----------------------------------------------------------------|
|----------------------------------------------------------3-----|
|-1-3-2-3-1-3-0-3-1-3-2-3-1-3-0-3-1-3-2-3-1-3-0-3-1-3-2-3--1---1-|
|-1-3-2-3-1-3-0-3-1-3-2-3-1-3-0-3-1-3-2-3-1-3-0-3-1-3-2-3-0--0-1-|
PM. . . . . . . . . . . . . . . . . . . . . . . . . . . . .  .
Comments