Killswitch Engage - Fixation On The Darkness Chords & Tabs

 

Fixation On The Darkness Chords & Tabs

Killswitch Engage Chords & Tabs

Version: 6 Type: Tab

Fixation On The Darkness Tab

Killswitch Engage

Fixation on The Darkness

Tuning-CGCFAD

Transcribed by Steve-o (BloodySabbath226@aol.com)

  .  = Palm mute
  *  = Pinch Harmonic ( Aka Squeel )
  /  = Slide Down
  \  = Slide Up
  h  = Hammer On
  p  = Pull Off
  x/ = Pick Slide
   
   This Is pretty damn close to what they really play, Trust me.

 Intro
 Gtr. 1
|-----------------------------------------------------|
|-----------------------------------------------------|
|-----------------------------------------------------|
|-0-0-12//--0---------------------------------------6-|
|-0-0-12//--0---------------------------------------6-|
|-0-0-12//--0---------------------------------------6-|
| . .               
|
| Gtr.2      This doesnt have to be played perfect.
|-----------------------------------------------------|
|-----------------------------------------------------|
|-----------------------------------------------------|
|-0-0-12//------------------------------------------6-|
|-0-0-12//--5-5-3-3-5-5-5-5-5-5-5-5-3-3-6-6-6-6-6-6-6-|
|-0-0-12//------------------------------------------6-|
  . .         . .     . .   . .   . .     . .   . . 

 Gtr. 1
|---------------------------------------------|
|---------------------------------------------|
|---------------------------------------------|
|-0---------------------------------------6---|
|-0---------------------------------------6---|
|-0---------------------------------------6---|
|
|
| Gtr. 2
|------------------------------------------------|
|------------------------------------------------|
|------------------------------------------------|
|-------------------------------------------6----|
|-5-5-3-3-5-5-5-5-5-5-5-5-3-3-6-6-6-6h9p6p0-6----|
|-------------------------------------------6----|
    . .     . .   . .   . .     . . 

 Gtr. 1 Then plays this with Gtr. 2 playing his same riff.
|------------------------------|
|------------------------------|
|------------------------------|
|-0-0---0-0-0-0-0-0---0-0--4\6-| x4
|-0-0---0-0-0-0-0-0---0-0--4\6-|
|-0-0---0-0-0-0-0-0---0-0--4\6-|
  . .   . . . . . .   . .       

Verse:
 Gtr.1
|----------------------------------------------------------------|
|----------------------------------------------------------------|
|----------------------------------------------------------------|
|-0-0-0-0-0-1-0-0-0-3-3-3-3-0--3--0-0-0-0-0-1-0-0-0-3-3-3-3\6--6-| x2
|-0-0-0-0-0-1-0-0-0-1-0-1-1-0--3--0-0-0-0-0-1-0-0-0-1-0-1-1\4--4-|
|-0-0-0-0-0-1-0-0-0---------0--3--0-0-0-0-0-1-0-0-0--------------|
|   . .   .   .   .                 . .   .   .   .               
|             
|Gtr. 2
|-----------------------------------------------------------------|
|-----------------------------------------------------------------|
|-----------------------------------------------------------------|
|-0-0-0-0-0-1-0-0-0-3-3-3-3-0-----0-0-0-0-0-1-0-0-0-3-3-3-3\6-----| x2
|-0-0-0-0-0-1-0-0-0-1-0-1-1-0-----0-0-0-0-0-1-0-0-0-1-0-1-1\4-*4*-|
|-0-0-0-0-0-1-0-0-0---------0-*5*-0-0-0-0-0-1-0-0-0---------------|
    . .   .   .   .                 . .   .   .   .
 Then:
 Gtr. 1 & 2
|------------------------------|
|------------------------------|
|------------------------------| x2
|-0-0---0-0-0-0-0-0---0-0--4\6-|
|-0-0---0-0-0-0-0-0---0-0--4\6-|
|-0-0---0-0-0-0-0-0---0-0--4\6-|
  . .   . . . . . .   . .  
 
 Gtr. 1
|------------------------------|
|------------------------------|
|------------------------------|
|-0-0---0-0-0-0-0-0---0-0--4\6-|
|-0-0---0-0-0-0-0-0---0-0--4\6-|
|-0-0---0-0-0-0-0-0---0-0--4\6-|
| . .   . . . . . .   . .  
|
| Gtr. 2
|-------------------------------------------|
|-------------------------------------------|
|-------------------------------------------|
|-----------------------------------------6-|
|-5-5-3-3-5-5-5-5-5-5-5-5-3-3-6-6-6-6-6-6-6-|
|-----------------------------------------6-|
    . .     . .   . .   . .     . .   . . 

 Gtr. 1
|------------------------------|
|------------------------------|
|------------------------------|
|-0-0---0-0-0-0-0-0---0-0--4\6-|
|-0-0---0-0-0-0-0-0---0-0--4\6-|
|-0-0---0-0-0-0-0-0---0-0--4\6-|
| . .   . . . . . .   . .  
|
| Gtr. 2
|----------------------------------------------|
|----------------------------------------------|
|----------------------------------------------|
|-------------------------------------------6--|
|-5-5-3-3-5-5-5-5-5-5-5-5-3-3-6-6-6-6h9p6p0-6--|
|-------------------------------------------6--|
    . .     . .   . .   . .     . .

Verse again:
 Gtr.1
|----------------------------------------------------------------|
|----------------------------------------------------------------|
|----------------------------------------------------------------|
|-0-0-0-0-0-1-0-0-0-3-3-3-3-0--3--0-0-0-0-0-1-0-0-0-3-3-3-3\6--6-| x2
|-0-0-0-0-0-1-0-0-0-1-0-1-1-0--3--0-0-0-0-0-1-0-0-0-1-0-1-1\4--4-|
|-0-0-0-0-0-1-0-0-0---------0--3--0-0-0-0-0-1-0-0-0--------------|
|   . .   .   .   .                 . .   .   .   .               
|             
|Gtr. 2
|-----------------------------------------------------------------|
|-----------------------------------------------------------------|
|-----------------------------------------------------------------|
|-0-0-0-0-0-1-0-0-0-3-3-3-3-0-----0-0-0-0-0-1-0-0-0-3-3-3-3\6-----| x2
|-0-0-0-0-0-1-0-0-0-1-0-1-1-0-----0-0-0-0-0-1-0-0-0-1-0-1-1\4-*4*-|
|-0-0-0-0-0-1-0-0-0---------0-*5*-0-0-0-0-0-1-0-0-0---------------|
    . .   .   .   .                 . .   .   .   .
[ Tab from: http://www.guitartabs.cc/tabs/k/killswitch_engage/fixation_on_the_darkness_tab_ver_6.html ]
 Chorus:
 Gtr. 2     Strum these(3)chords  ..New Life!!
|-------------|-----------------|----------------|
|-------------|-----------------|----------------|
|-------------|--2-----5-----7--|--2-2---5--5-5--|
|-------------|--0-----3-----5--|--0-0---3--3-3--|
|-8h9p8-------|--0-----3-----5--|--0-0-0-3--3-3--|
|-------11-6--|--0-----3-----5--|--0-0-0-3--3-3--|
|                                      
|
|Gtr. 1                                                    ..New Life!!
|-------------|--------8-------------8-------------8-------|-8-8-8-8--8-8-8-|
|-------------|------7---7---------7---7---------7---7-----|-7-7-7-7--7-7-7-|
|-------------|----5-------7-----5-------5-----5-------5---|-5-5-5-6--6-6-6-|
|-------------|--5-----------5-6-----------6-7-----------7-|-5-5-5-5--5-5-5-|
|-------------|--------------------------------------------|----------------|
 
 Gtrs. 1 & 2
|------------------------------------------------------------------|
|------------------------------------------------------------------|
|------------------------------------------------------------------|
|-0-0-0-0-0-0-0-0-7-7-7-7-0-0-5-5-5-5---------8-8-8-8--------------|
|-------------------------------------6-6-6-6----------------------|
|-----------------------------------------------------0-0-3-0-0-2--|
  . . . . . . . .         . .                         . .   . .

|--------------------------------------------|
|--------------------------------------------|
|--------------------------------------------| x3
|-0-0-0-0-0-0-0-0-7-7-7-7--3--5--7\8/7-------|
|--------------------------1--3--5\6/5-0-*5*-|
|--------------------------------------------|
  . . . . . . . .                      .


 Gtr.1
|---------------------------------------------------|
|---------------------------------------------------|
|---------------------------------------------------|
|-0--0-0---0-0-0-0-0-0-0-0---0-0--3--5--7\8/7-------| x2
|-0--0-0---0-0-0-0-0-0-0-0---0-0--1--3--5\6/5-0-*5*-|
|-0--0-0---0-0-0-0-0-0-0-0---0-0--------------------|
| .  . .   . . . . . . . .   . .              .
|
|Gtr. 2
|------------------------------------------------------------------|
|------------------------------------------------------------------|
|------------------------------------------------------------------|
|-0-0-0-0-0-0-0-0-7-7-7-7-0-0-5-5-5-5---------8-8-8-8--------------|
|-------------------------------------6-6-6-6----------------------|
|-----------------------------------------------------0-0-3-0-0-2--|
  . . . . . . . .         . .                         . .   . .

|--------------------------------------------|
|--------------------------------------------|
|--------------------------------------------| x2
|-0-0-0-0-0-0-0-0-7-7-7-7--3--5--7\8/7-------|
|--------------------------1--3--5\6/5-0-*5*-|
|--------------------------------------------|
  . . . . . . . .                      .

Verse again:
 Gtr.1
|----------------------------------------------------------------|
|----------------------------------------------------------------|
|----------------------------------------------------------------|
|-0-0-0-0-0-1-0-0-0-3-3-3-3-0--3--0-0-0-0-0-1-0-0-0-3-3-3-3\6--6-| x2
|-0-0-0-0-0-1-0-0-0-1-0-1-1-0--3--0-0-0-0-0-1-0-0-0-1-0-1-1\4--4-|
|-0-0-0-0-0-1-0-0-0---------0--3--0-0-0-0-0-1-0-0-0--------------|
|   . .   .   .   .                 . .   .   .   .               
|             
|Gtr. 2
|-----------------------------------------------------------------|
|-----------------------------------------------------------------|
|-----------------------------------------------------------------|
|-0-0-0-0-0-1-0-0-0-3-3-3-3-0-----0-0-0-0-0-1-0-0-0-3-3-3-3\6-----| x2
|-0-0-0-0-0-1-0-0-0-1-0-1-1-0-----0-0-0-0-0-1-0-0-0-1-0-1-1\4-*4*-|
|-0-0-0-0-0-1-0-0-0---------0-*5*-0-0-0-0-0-1-0-0-0---------------|
    . .   .   .   .                 . .   .   .   .

 Chorus again:
 Gtr. 2     Strum these(3)chords  ..New Life!!
|-------------|-----------------|----------------|
|-------------|-----------------|----------------|
|-------------|--2-----5-----7--|--2-2---5--5-5--|
|-------------|--0-----3-----5--|--0-0---3--3-3--|
|-8h9p8-------|--0-----3-----5--|--0-0-0-3--3-3--|
|-------11-6--|--0-----3-----5--|--0-0-0-3--3-3--|
|                                      
|
|Gtr. 1                                                    ..New Life!!
|-------------|--------8-------------8-------------8-------|-8-8-8-8--8-8-8-|
|-------------|------7---7---------7---7---------7---7-----|-7-7-7-7--7-7-7-|
|-------------|----5-------7-----5-------5-----5-------5---|-5-5-5-6--6-6-6-|
|-------------|--5-----------5-6-----------6-7-----------7-|-5-5-5-5--5-5-5-|
|-------------|--------------------------------------------|----------------|
Gtrs. 1 & 2
|-------------------------------|--------------------------------------|
|-------------------------------|--------------------------------------|
|-------------------------------|--------------------------------------|
|-0--(0)-----------0-0---0-0----|--0--(0)------x/////------0-0---0-0---|
|-0--(0)-----------0-0-5-0-0-5--|--0--(0)------x/////------0-0-5-0-0-5-|
|-0--(0)-----------0-0---0-0----|--0--(0)------x/////------0-0---0-0---|
                   . .   . .                               . .   . .

Gtrs. 1 & 2
|-----------------------------|
|-----------------------------|
|-----------------------------|
|-0-0-0-3-2-0-6-3-0-3-2-0-2-3-| x2
|-0-0-0-3-2-0-6-3-0-3-2-0-2-3-|
|-0-0-0-3-2-0-6-3-0-3-2-0-2-3-|
  . . . . . . . . . . . . . .

Gtrs. 1 & 2
|--------------|
|--------------|
|--------------|
|-0-0---0-0----|
|-0-0-5-0-0-5--|
|-0-0---0-0----|
  . .   . .