Killswitch Engage - Fixation On The Darkness Chords & Tabs

 

Fixation On The Darkness Chords & Tabs

Killswitch Engage Chords & Tabs

Version: 5 Type: Tab 0 ratings
1 star 2 stars 3 stars 4 stars 5 stars
comments

Fixation On The Darkness Tab

   
Song: Fixation on the Darkness
Artist: Killswitch Engage
Album: Alive or Just Breathing
Tabbed by: Rocku-2tony
/ - Slide up
\ - Slide down
PM - Palm mute
x - Mute string
h - Hammer on
p - Pull off
() - Pinch harmonic and vibrato
///X - Scratch string with pick 

Tuning: C#

Intro (Adam)
-------------------------------
|-------------------------------|      
|-------------------------------|  
|-1/6\1--0-------0--------------|     
|-1/6\1--0---/6--0---/6---0-----|    
|-1/6\1--0---/6--0---/6---0-----                                             

|-----------------------------|
|-----------------------------| 
|-0-0---0-0-0-0-0-0---0-0-----|
|-0-0---0-0-0-0-0-0---0-0---6-|
|-0-0---0-0-0-0-0-0---0-0---6-|

Intro (Joel) 
 -----------------------------------------------------
|-----------------------------------------------------|
|-----------------------------------------------------| 
|-----------------------------------------------------|
|-5-x-3-5-5-5-3-6-x-6-3---5-x-3-5-5-5-3-6-x-6-3h5p3p0-|
|-----------------------------------------------------|

Verse (Adam and Joel)
|------------------------------------------------------|
|------------------------------------------------------|
|------------------------------------------------------| 
|-0-0-0-0-1-0-3-3-3-3-------0-0-0-0-1-0-3-3-3-3/6------|
|-0-0-0-0-1-0-1-0-1-0-------0-0-0-0-1-0-1-0-1-1/4--(4)-|
|-0-0-0-0-1-0---------3-(6)-0-0-0-0-1-0----------------|

Fill (Joel)
|----------|
|----------|
|----------| x1
|-4h5p4----|
|------5-0-|
|----------|

Chorus (Adam)
|----------------------------|
|----------------------------|
|----------------------------|
|--2-2---5--5--7--7--7--7-5--|
|--2-2---3--3--5--5--5--5-3--|
|--2-2-----------------------|
[ Tab from: http://www.guitartabs.cc/tabs/k/killswitch_engage/fixation_on_the_darkness_tab_ver_5.html ]
Chorus (Joel)
|--------------------------------------------------------------|
|-8--8-------------7--8--------8-8--8-------------8-8----------|
|-7----7--------7--7----7----7------7--7--7---7---7---7---7--7-|
|-5------5----5----7------7-------------5---5-----------5--5---|
|-7--------7------------------------5-------------5------------|
|------------------10---------------------------------10-------|

Interlude (Joel)
|---------------------------------------------------------------------|
|---------------------------------------------------------------------|
|---------------------------------------------------------------------|
|------------------7-7-7-7-----5-5-5-5-----8-8-8-8---------------1----|
|----------5-5-5-5---------------------6-6---------------3/4-x-x-1----|
|--0-0-0-0-----------------6-6----------------------0-0--3/4-x-x-1----|

Interlude (Joel)             [        Adam and Joel       ]
|---------------------------------------------------------|
|---------------------------------------------------------|
|------------------------------------------7/8\7----------| 
|-----------------7-7-7-7-----3-----5------x-x-x----------| 
|-0-0-0-0-5-5-5-5-------------1-----3------5/6\5----------|
|-0-0-0-0-----------------0-0----0------------------0--3*-|


|----------------------------------------------------|
|----------------------------------------------------|
|----------------------------------------------------|
|--0~-------0~--------(0)----------------------------|
|--0~-------0~--------(0)------x\\\\\x\\\\\\---------|
|--0~-------0~--------(0)------x\\\\\x\\\\\\---------|
                                 pick scrape
|--------------------------------------------------------|
|--------------------------------------------------------|
|------7/8-----------------------------------------------|
|------x-x-------1---------------------------------------|
|------5/6-------1---0-0-4--3--0--6--3--0--4--3--0--1--3-|
|--0-0------0-0--1---0-0-4--3--0--6--3--0--4--3--0--1--3-|

|---------------------------------------------------------|
|---------------------------------------------------------|
|--------------------------------------------7/8----------|
|--------------------------------------------x-x----------|
|--0--4--3--0--6--3--0--4--3--0--1--3--0--0--5/6--------1-|
|--0--4--3--0--6--3--0--4--3--0--1--3--0--0-------0--0--1-|
Comments