Killswitch Engage - Fixation On The Darkness Chords & Tabs

 

Fixation On The Darkness Chords & Tabs

Killswitch Engage Chords & Tabs

Version: 4 Type: Tab 0 ratings
1 star 2 stars 3 stars 4 stars 5 stars
comments

Fixation On The Darkness Tab

   
Tabbed By: Marchismo

/ - Slide up
\ - Slide down
PM - Palm mute
h - Hammer on
p - Pull off
() - Pinch harmonic and vibrato


Tuning: C G C F A D


Intro
Guitar 1
|-------------------------------------------------------|
|-------------------------------------------------------|
|-------------------------------------------------------| x1
|-0-0---12\--0---------------6-0----------------------6-|
|-0-0---12\--0---------------6-0----------------------6-|
|-0-0---12\--0---------------6-0----------------------6-|
             |----let ring--|  |-----let ring--------|
Guitar 2
|-------------------------------------------------------|
|-------------------------------------------------------|
|-------------------------------------------------------| x1
|-0-0---12\------------------6------------------------6-|
|-0-0---12\--5-3-5-5-5-3-6-6-6--5-3-5-5-5-3-6-6-9-6---6-|
|-0-0---12\------------------6----------------------7-6-|
PM----|


Guitar 1
|--------------------------------|
|--------------------------------|
|--------------------------------| x4
|-0-0---0-0-0-0-0-0---0-0-0--4/6-|
|-0-0---0-0-0-0-0-0---0-0-0--4/6-|
|-0-0---0-0-0-0-0-0---0-0-0--4/6-|
PM- -   - - - - - -   - - -


Guitar 2 
|----------------------------------------------|
|----------------------------------------------|
|----------------------------------------------| 
|-----------------6------------------------6---|
|-5-3-5-5-5-3-6-6-6--5-3-5-5-5-3-6-6-9-6---6---| x4
|-----------------6----------------------7-6---|


Verse
Guitar 1
|---------------------------------------------------------|
|---------------------------------------------------------|
|---------------------------------------------------------| x2
|-0-0--0-1-08p7h8-8-0-30-0--0-1-0-8p7h8-8/11-11---------|
|-0-0--0-1-0-8p7h8-8-0-3-0-0--0-1-0-8p7h8-8/11-11---------|
|-0-0--0-1-0-8p7h8-8-0-3-0-0-0-1-0-8p7h8-8/11-11---------|

Guitar 2
|-----------------------------------------------------------|
|-----------------------------------------------------------|
|-----------------------------------------------------------| x2
|-0-0--0-1-08p7h8-8-0----0-0--0-1-0-8p7h8-8/11-(3)--------|
|-0-0--0-1-0-8p7h8-8-0(3)-0-0--0-1-0-8p7h8-8/11------------|
|-0-0--0-1-0-8p7h8-8-0-----0-0-0-1-0-8p7h8-8/11------------|


Break
Guitar 1
|--------------------------------|
|--------------------------------|
|--------------------------------| x4
|-0-0---0-0-0-0-0-0---0-0-0--4/6-|
|-0-0---0-0-0-0-0-0---0-0-0--4/6-|
|-0-0---0-0-0-0-0-0---0-0-0--4/6-|
PM- -   - - - - - -   - - -

[ Tab from: http://www.guitartabs.cc/tabs/k/killswitch_engage/fixation_on_the_darkness_tab_ver_4.html ]
Guitar 2 
|----------------------------------------------|
|----------------------------------------------|
|----------------------------------------------| 
|-----------------6------------------------6---|
|-5-3-5-5-5-3-6-6-6--5-3-5-5-5-3-6-6-9-6---6---| x2
|-----------------6----------------------7-6---|


Fill
|-----------|
|-----------|
|-----------| x1
|-3h4p3-----|
|-------4---|
|---------6-|


Chorus - Guitar 1
|-------------------------------|
|-------------------------------|
|-2--2--2--5--5--7--7--7--7--2-5| x4
|-2--2--2--5--5--7--7--7--7--2-5|
|-0--0--0--3--3--5--5--5--5--0-3|
|-0--0--0--3--3--5--5--5--5--0-3|



Guitar 2
|----------------------------------------------------|
|------8-------------8-------8-----------------8-8---|
|---7----7--------7--7----7----7----------7--------7-| x4
|-5--------5----5----5--5--------5----5-5---5--------|
|------------5-------5-------------5-----------------|
|----------------------------------------------------|


Bridge
Guitar 1
|---------------------------------------------------|
|---------------------------------------------------|
|---------------------------------------------------| 
|-0--0-0---0-0-0-0-0-0-0-0--0-0--3-5-7h8p7---------|
|-0--0-0---0-0-0-0-0-0-0-0--0-0--1-3--5h6p5--0-(5)--|
|-0--0-0---0-0-0-0-0-0-0-0--0-0---------------------|
PM-  - -   - - - - - - - -  - -

Guitar 2
|----------------------------------------------------------|
|----------------------------------------------------------|
|----------------------------------------------------------|
|-0-0-0-0-0-0-7-7-7--5-5-5----------0-0-1--0-0-0--0-0-0-0--|
|--------------------------6-6-6-6--0-0-1--0-0-0--0-0-0-0--|
|-----------------------------------0-0-1--0-0-0--0-0-0-0--|
PM- - - - - -                       - -    - -    - - - -   


|----------------------------------------|
|----------------------------------------|
|----------------------------------------| 
|-0-0-0-0-0-7-7-7-7-3--5-7h8p7--0-------|
|--------------------1-3-5h6p5--0(5)---|
|----------------------------------------|

Outro
|-------------------------------------------------|
|-------------------------------------------------|
|-------------------------------------------------| 
|0-0-0-0-0-0-0-0-0-0-0-0-0-0-0-0--0-0-----0-0-----| x2
|0-0-0-0-0-0-0-0-0-0-0-0-0-0-0-0--0-0--5--0-0--5--|
|0-0-0-0-0-0-0-0-0-0-0-0-0-0-0-0--0-0-----0-0-----|


Play 4 times
|-------------------------|       |---------------|
|-------------------------|       |---------------|
|-------------------------|       |---------------| 
|-0-3-2-0-6-3-0-3-2-0-2-3-| x2    |-0-0-----0-0---|
|-0-3-2-0-6-3-0-3-2-0-2-3-|       |-0-0-5---0-0-5-|
|-0-3-2-0-6-3-0-3-2-0-2-3-|       |-0-0-----0-0---|
PM- - - - - - - - - - - -





Order
-----
Intro
Verse
Break
Verse
Fill/Chorus
Bridge
Verse
Fill/Chorus
Outro
Comments