Killswitch Engage - Fixation On The Darkness Chords & Tabs

 

Fixation On The Darkness Chords & Tabs

Killswitch Engage Chords & Tabs

Version: 3 Type: Tab 0 ratings
1 star 2 stars 3 stars 4 stars 5 stars
comments

Fixation On The Darkness Tab

   
-------------------------------------------------------------------------------
	     Fixation on the Darkness - Killswitch Engage
-------------------------------------------------------------------------------
Tabbed by:CorprateAvenger
Email:Corrprateavenger@aol.com

Tuning:CGCFAD

| /  slide up
| \  slide down
| h  hammer-on
| p  pull-off
| ~  vibrato
| +  harmonic
|()  pinch harmonic
| -  Mute note

Intro
|-------------------------|
|-------------------------|
|-------------------------| x1
|-1/12\1--0-------0-------|
|-1/12\1--0---/5--0---/5--|
|-1/12\1--0---/6--0---/6--|


Guitar 1
|-----------------------------|
|-----------------------------|
|-----------------------------| x4
|-0-0---0-0-0-0-0-0---0-0-----|
|-0-0---0-0-0-0-0-0---0-0--/5-|
|-0-0---0-0-0-0-0-0---0-0--/6-|
PM- -   - - - - - -   - -


Guitar 2 
|-----------------------------------------------------|
|-----------------------------------------------------|
|-----------------------------------------------------| x8
|-----------------------------------------------------|
|-5-x-3-5-5-5-3-6-x-6-3---5-x-3-5-5-5-3-6-x-6-3h5p3p0-|
|-----------------------------------------------------|


Verse
|------------------------------------------------------|
|------------------------------------------------------|
|------------------------------------------------------| x1
|-0-0-0-0-1-0-3-3-3-3-------0-0-0-0-1-0-3-3-3-3/6------|
|-0-0-0-0-1-0-1-0-1-0-------0-0-0-0-1-0-1-0-1-1/4--(4)-|
|-0-0-0-0-1-0---------3-(3)-0-0-0-0-1-0----------------|
PM    -                         _

Verse
|------------------------------------------------------|
|------------------------------------------------------|
|------------------------------------------------------| x1
|-0-0-0-0-1-0-3-3-3-3-------0-0-0-0-1-0-3-3-3-3/6------|
|-0-0-0-0-1-0-1-0-1-0-------0-0-0-0-1-0-1-0-1-1/4--(4)-|
|-0-0-0-0-1-0---------3-(3)-0-0-0-0-1-0----------------|
PM    -                         _

Guitar 1
|-----------------------------|
|-----------------------------|
|-----------------------------|x4
|-0-0---0-0-0-0-0-0---0-0-----|
|-0-0---0-0-0-0-0-0---0-0--/5-|
|-0-0---0-0-0-0-0-0---0-0--/6-|
PM- -   - - - - - -   - - 


Guitar 2 
|-----------------------------------------------------|
|-----------------------------------------------------|
|-----------------------------------------------------| x8
|-----------------------------------------------------|
|-5-x-3-5-5-5-3-6-x-6-3---5-x-3-5-5-5-3-6-x-6-3h5p3p0-|
|-----------------------------------------------------|


Verse
|------------------------------------------------------|
|------------------------------------------------------|
|------------------------------------------------------| x1
|-0-0-0-0-1-0-3-3-3-3-------0-0-0-0-1-0-3-3-3-3/6------|
|-0-0-0-0-1-0-1-0-1-0-------0-0-0-0-1-0-1-0-1-1/4--(4)-|
|-0-0-0-0-1-0---------3-(3)-0-0-0-0-1-0----------------|
PM    -                         _

Verse
|------------------------------------------------------|
|------------------------------------------------------|
|------------------------------------------------------| x1
|-0-0-0-0-1-0-3-3-3-3-------0-0-0-0-1-0-3-3-3-3/6------|
|-0-0-0-0-1-0-1-0-1-0-------0-0-0-0-1-0-1-0-1-1/4--(4)-|
|-0-0-0-0-1-0---------3-(3)-0-0-0-0-1-0----------------|
PM    -                         _



Fill
|----------|
|----------|
|----------| x1
|-4/5\4----|
|------5---|
|--------7-|

[ Tab from: http://www.guitartabs.cc/tabs/k/killswitch_engage/fixation_on_the_darkness_tab_ver_3.html ]
Chorus - Guitar 1
|----------------------------|
|----------------------------|
|----------------------------| x4
|--2-2---5--5--7--7--7--7-5--|
|--2-2---3--3--5--5--5--5-3--|
|--2-2-----------------------|


Chorus - Guitar 2
|--------------------------------------------------------------|
|-8--8-------------7--8--------8-8--8-------------8-8----------|
|-7----7--------7--7----7----7------7--7--7---7---7---7---7--7-|4x
|-5------5----5----7------7-------------5---5-----------5--5---|
|-7--------7------------------------5-------------5------------|
|------------------10---------------------------------10-------|




Bridge - Play x3
|---------------------------------------------------------|
|---------------------------------------------------------|
|---------------------------------------------------------|
|----------------7-7-7-7-5-5-5-5-----8-8-8-8--------------|
|--------------------------------5-5------------4h5--1p0--|
|-0-0-0-0-0-0-0-0-----------------------------0-4h5--1p0--|
PM- - - - - -                        - -      

|--------------------------------|
|--------------------------------|
|--------------3-5---------------| 
|-------7-7-7--3-5--7/8\7--------|
|--------------1-3--5/6\5-0------|
|-0-0-0----------------------(3)-|

|-----------------------------------|
|-----------------------------------|
|---3-5----------10-12-14-15-14-----|played end fill 1x
|---3-5--7/8\7----------------------|
|---1-3--5/6\5----8-10-12\13/12-----|
|-------------------------------(3)-|


                  
Verse
|------------------------------------------------------|
|------------------------------------------------------|
|------------------------------------------------------| x1
|-0-0-0-0-1-0-3-3-3-3-------0-0-0-0-1-0-3-3-3-3/6------|
|-0-0-0-0-1-0-1-0-1-0-------0-0-0-0-1-0-1-0-1-1/4--(4)-|
|-0-0-0-0-1-0---------3-(3)-0-0-0-0-1-0----------------|
PM    -                            _

Verse
|------------------------------------------------------|
|------------------------------------------------------|
|------------------------------------------------------| x1
|-0-0-0-0-1-0-3-3-3-3-------0-0-0-0-1-0-3-3-3-3/6------|
|-0-0-0-0-1-0-1-0-1-0-------0-0-0-0-1-0-1-0-1-1/4--(4)-|
|-0-0-0-0-1-0---------3-(3)-0-0-0-0-1-0----------------|
PM    -                            _


Fill
|------------|
|------------|
|------------| x1
|--4/5\4-----|
|--------5---|
|----------7-|

Chorus - Guitar 1
|----------------------------|
|----------------------------|
|----------------------------| x4
|--2-2---5--5--7--7--7--7-5--|
|--2-2---3--3--5--5--5--5-3--|
|--2-2-----------------------|


Chorus - Guitar 2
|---------------------------------------------------------------|
|-8--8-------------7--8--------8-8--8-------------8-8-----------|
|-7----7--------7--7----7----7------7--7--7---7---7---7---7---7-|4x
|-5------5----5----7------7-------------5---5-----------5-------|
|-7--------7------------------------5-------------5-------------|
|------------------10---------------------------------10----8---|


Outro
|----------------------------|
|----------------------------|
|----------------------------| x1
|-0--------1-0-------------1-|
|-0--5h6---1-0------5h6----1-|
|-0--------1-0---X---------1-|


Play 4 times
|-------------------------|      |---------|
|-------------------------|      |---------|
|-------------------------| x2   |---------| x1
|-0-3-2-0-5-3-0-3-2-0-3-0-|      |------1--|
|-0-3-2-0-5-3-0-3-2-0-3-0-|      |-5h6--1--|
|-0-3-2-0-5-3-0-3-2-0-3-0-|      |------1--|
PM- - - - - - - - - - - -

Ok, in the verse, the pinch harmonic is done at the 5th but I wrote 3rd because
it sounds better and matches better.  This tab is almost 100% if not perfect.
Comments