Killswitch Engage - Fixation On The Darkness Chords & Tabs

 

Fixation On The Darkness Chords & Tabs

Killswitch Engage Chords & Tabs

Version: 1 Type: Bass Tab 0 ratings
1 star 2 stars 3 stars 4 stars 5 stars
comments

Fixation On The Darkness Bass Tab

Band- Killswitch Engage
Song- Fixation On The Darness

Intro: x1
 
|--------------------------------|  
|--------------------------------|
|--------------------------------|
|-00/12\-0~------6?0~--------/6--|


Main riff: x4
 
|-------------------------------| 
|-------------------------------|
|-------------------------------|
|-00---00000000--00--/6---------|



Verse: x2
 
|----------------------------------------------------------------|  
|----------------------------------------------------------------|
|------------------1-0-1---------------------------1-0-1-1/4-4---|
|-0-0-0-0-0-1-1-0-0-------3/6-6----0-0-0-0-0-1-1-0---------------|
 

Main riff: x4


Verse: x2  


Chorus: x4

|--------------------------------------------------|  
|--------------------------------------------------|
|-----------3-3p2-3-5------5--------------3?-3-3-3-|
|--2?2p0--2-----------0---0---0-0?--2p0-0----------|


Bridge: (this comes in after about 5 seconds)
[ Tab from: http://www.guitartabs.cc/tabs/k/killswitch_engage/fixation_on_the_darkness_btab.html ]
|------------------------------------------|
|------------------------------------------|
|--------------------------1--3--5h6p5-----|
|--0~---------------------------------0h3--|

 
|---------------------------------------------------------------------| 
|---------------------------------------------------------------------|
|----------------------------------------------------1?-3?5h6p3-------|
|-0000000000000000000000000003/4-3-1--00000000000000-----------0h3----|

 


|--------------------------------------------------|
|--------------------------------------------------|
|------------------------------1--3-5h6p5----------|
|--0---0-0?-00000000---0?-0-0------------0h3-------|

|---------------------------------------------------------------|
|---------------------------------------------------------------|
|------------------------------1?-3-5h6p5-----1-?3--5h6p3-------|
|--0---0-0?-00000000---0?-0-0-------------0-0------------0h3----|

                  
Verse: x2
 
 
Chorus: x4


Outro: play lots of times
 
|-------------------------------------------------------------|
|-------------------------------------------------------------|
|-----------------------------------------------------5/3-----| 
|---0-4-3-0-6-3-0-4-3-0-1-3-0-4-3-0-6-3-0-4-3-0-1-3-00---00-1-|
Comments