Killing Joke - Love Like Blood Chords & Tabs

 

Love Like Blood Chords & Tabs

Killing Joke Chords & Tabs

Version: 1 Type: Bass Tab 0 ratings
1 star 2 stars 3 stars 4 stars 5 stars
comments

Love Like Blood Bass Tab

   
"Love Like Blood" by Killing Joke
=================================

transcribed by Gilles Velay (gvelay@free.fr)

Notations :
  w : whole       e : 8th             / : silde up            
  h : half        s : 16th            R : rest
  q : quarter    +++ : tied notes     


Intro : guitar + keyboard, then drums enter and finally bass with :
-----
    e e e e e e e e   e e e e e e e e   e e e e e e e e   e q   q   q   e  
G-|-----------------|-----------------|-----------------|-----------------|
D-|-----------------|-----------------|-----------------|-----------------|
A-|-3-R-3-3-R-3-R-3-|-R-3-R-3-R-3-R-3-|-3-R-3-3-R-3-R-3-|-R---------5---5-|
E-|-----------------|-----------------|-----------------|---1---1---------|

    e e e e e e e e   e e e e e e e e   e e e e e e e e   e q   q   q   e  
G-|-----------------|-----------------|-----------------|-----------------|
D-|-----------------|-----------------|-----------------|-----------------|
A-|---R-----R---R---|-R---R---R---R---|---R-----R---R---|-R-1---1---2---2-|
E-|-3---3-3---3---3-|---3---3---3---3-|-3---3-3---3---3-|-----------------|

Verses
------
same as Intro riff (x4)

Pre-Chorus
----------
played 4 times (12 times before last chorus):
    e e e e e e e e   e e e e e e e e  
G-|-----------------|-----------------|
D-|-----------------|-----------------|
A-|---R-----R---R---|-R---R---R-3-R-3-|
E-|-1---1-1---1---1-|---1---1---------|
[ Tab from: http://www.guitartabs.cc/tabs/k/killing_joke/love_like_blood_btab.html ]
Chorus
------
played twice :
    e e e e e e e e   e e e e e e+q     e e e e e e e e   e e e e e e+q       
G-|-----------------|-----------------|-----------------|--------------------|
D-|-----------------|-----------------|-----------------|--------------------|
A-|---R-----R---R---|-R---R---R-------|---R-----R---R---|-R---R---R----------|
E-|-3---3-3---3---3-|---3---3---3-----|-3---3-3---3---3-|---3---3---3------/-|

    e e e e e e e e   e e e e e e+q     e e e e e e e e   e e e e e e+q    
G-|-----------------|-----------------|-----------------|-----------------|
D-|-----------------|-----------------|-----------------|-----------------|
A-|-6-R-6-6-R-6-R-6-|-R-6-R-6-R-6-----|-6-R-6-6-R-6-R-6-|-R-6-R-6-R-6-----|
E-|-----------------|-----------------|-----------------|-----------------|

    e e e e e e e e   e e e e e e+q     e e e e e e e e   e e e e e e+q    
G-|-----------------|-----------------|-----------------|-----------------|
D-|-----------------|-----------------|-----------------|-----------------|
A-|-5-R-5-5-R-5-R-5-|-R-5-R-5-R-5-----|-5-R-5-5-R-5-R-5-|-R-5-R-5-R-5-----|
E-|-----------------|-----------------|-----------------|-----------------|

    e e e e e e e e   e e e e e e+q     e e e e e e e e   e    q+e   e  
G-|-----------------|-----------------|-----------------|--------------|
D-|-----------------|-----------------|-----------------|--------------|
A-|-3-R-3-3-R-3-R-3-|-R-3-R-3-R-3-----|---R-----R---R---|-----10-----R-|
E-|-----------------|-----------------|-3---3-3---3---0-|-1-/----------|


----------------------------------------------------------------------
| Tab generated with GnTabber (http://gvelay.free.fr/tools/gntabber) |
| on Sun Jul 30 22:35:30 2000                                        |
----------------------------------------------------------------------

Comments