Killing Heidi - Live Without It Chords & Tabs

 

Live Without It Chords & Tabs

Killing Heidi Chords & Tabs

Version: 3 Type: Tab

Live Without It Tab

My second tab. I love this song. Go ella! anywayz hope u all like it. im pretty sure 
its correct.

Intro
e|----------------------------------------------|
B|----3---3-----5---5-----5---5-----5---8---5---|
G|----0---0-----0---0-----0---0-----0---0---0---|
D|----5---5-----7---7-----7---7-----7---7---7---|
A|--3---3---3-5---5---5-4---4---4-5---5---------|
E|----------------------------------------------|

Verse
e|----------------------------------------------|
B|----3---3-----5---5-----5---5-----5---8---5---|
G|----0---0-----0---0-----0---0-----0---0---0---|
D|----5---5-----7---7-----7---7-----7---7---7---|
A|--3---3---3-5---5---5-4---4---4-5---5---------|
E|----------------------------------------------|


e|----------------------------------------------|
B|----3---3-----5---5-----5---5-----5---8---5---|
G|----0---0-----0---0-----0---0-----0---0---0---|
D|----5---5-----7---7-----7---7-----7---7---7---|
A|--3---3---3-5---5---5-4---4---4-5---5---------|
E|----------------------------------------------|

Bridge

e|---------------------------------------------------------|
B|---------------------------------------------------------|
G|--5-5---5-5-5-7-7---7-7-7---6-6---6-6-6-7-7---7-7-7------|
D|--5-5---5-5-5-7-7---7-7-7---7-7---7-7-7-7-7---7-7-7------|
A|--3-3---3-3-3-5-5---5-5-5---4-4---4-4-4-5-5---5-5-5------|
E|---------------------------------------------------------|


e|---------------------------------------------------------|
B|---------------------------------------------------------|
G|--5-5---5-5-5-7-7---7-7-7---6-6---6-6-6-7-7---7-7-7------|
D|--5-5---5-5-5-7-7---7-7-7---7-7---7-7-7-7-7---7-7-7------|
A|--3-3---3-3-3-5-5---5-5-5---4-4---4-4-4-5-5---5-5-5------|
E|---------------------------------------------------------|


Chorus
e|-------------------|
B|-------------------|
G|------12---3---5---|
D|--7---12---3---5---|
A|--7---10---1---3---|
E|--5----------------|


e|-------------------|
B|-------------------|
G|------12---3---5---|
D|--7---12---3---5---|
A|--7---10---1---3---|
E|--5----------------|

Verse
[ Tab from: http://www.guitartabs.cc/tabs/k/killing_heidi/live_without_it_tab_ver_3.html ]
e|----------------------------------------------|
B|----3---3-----5---5-----5---5-----5---8---5---|
G|----0---0-----0---0-----0---0-----0---0---0---|
D|----5---5-----7---7-----7---7-----7---7---7---|
A|--3---3---3-5---5---5-4---4---4-5---5---------|
E|----------------------------------------------|


e|----------------------------------------------|
B|----3---3-----5---5-----5---5-----5---8---5---|
G|----0---0-----0---0-----0---0-----0---0---0---|
D|----5---5-----7---7-----7---7-----7---7---7---|
A|--3---3---3-5---5---5-4---4---4-5---5---------|
E|----------------------------------------------|

Bridge

e|---------------------------------------------------------|
B|---------------------------------------------------------|
G|--5-5---5-5-5-7-7---7-7-7---6-6---6-6-6-7-7---7-7-7------|
D|--5-5---5-5-5-7-7---7-7-7---7-7---7-7-7-7-7---7-7-7------|
A|--3-3---3-3-3-5-5---5-5-5---4-4---4-4-4-5-5---5-5-5------|
E|---------------------------------------------------------|


e|---------------------------------------------------------|
B|---------------------------------------------------------|
G|--5-5---5-5-5-7-7---7-7-7---6-6---6-6-6-7-7---7-7-7------|
D|--5-5---5-5-5-7-7---7-7-7---7-7---7-7-7-7-7---7-7-7------|
A|--3-3---3-3-3-5-5---5-5-5---4-4---4-4-4-5-5---5-5-5------|
E|---------------------------------------------------------|

Chorus
e|-------------------|
B|-------------------|
G|------12---3---5---|
D|--7---12---3---5---|
A|--7---10---1---3---|
E|--5----------------|


e|-------------------|
B|-------------------|
G|------12---3---5---|
D|--7---12---3---5---|
A|--7---10---1---3---|
E|--5----------------|


e|-------------------|
B|-------------------|
G|------12---3---5---|
D|--7---12---3---5---|
A|--7---10---1---3---|
E|--5----------------|


e|-------------------|
B|-------------------|
G|------12---3---5---|
D|--7---12---3---5---|
A|--7---10---1---3---|
E|--5----------------|

e|----------|
B|----------|
G|--7---5---|
D|--7---5---|
A|--5---3---|
E|----------|  x6

(clean)
e|----------------------------------------------|
B|----3---3-----5---5-----5---5-----5---8---5---|
G|----0---0-----0---0-----0---0-----0---0---0---|
D|----5---5-----7---7-----7---7-----7---7---7---|
A|--3---3---3-5---5---5-4---4---4-5---5---------|
E|----------------------------------------------|  (repeat to fade)