Killing Heidi - Live Without It Chords & Tabs

 

Live Without It Chords & Tabs

Killing Heidi Chords & Tabs

Version: 1 Type: Tab 0 ratings
1 star 2 stars 3 stars 4 stars 5 stars
comments

Live Without It Tab

   
This is a great song that sounds cool on both electric and acoustic. It's
pretty easy to play, just don't use a pick.

INTRO/VERSE:
e------------------------------------------|
B---3----3-----5---5-----5---5-----5---5---|
G---0----0-----0---0-----0---0-----0---0---|
D------------------------------------------|
A-3----3---3-5---5---5-4---4---4-5---5---4-|
E------------------------------------------|
[ Tab from: http://www.guitartabs.cc/tabs/k/killing_heidi/live_without_it_tab.html ]
PRE:
just strum these chords
e------------------------------------|
B-3-3-3-3--5-5-5-5--5-5-5-5--5-5-5-5-|
G-0-0-0-0--0-0-0-0--0-0-0-0--0-0-0-0-|
D------------------------------------|
A-3-3-3-3--5-5-5-5--4-4-4-4--5-5-5-5-|
E------------------------------------|

CHORUS:
If you're playing unplugged, use the full chords 
A G C Bb, for 1/2 A bar each. (A G | C Bb |)
Hit the bass note before each chord 
is played.  

For electric play the power chord version

Have fun and rock on

Corrections welcome at fender137@yahoo.com.au
Comments