Killing Heidi - I Am Chords & Tabs

 

I Am Chords & Tabs

Killing Heidi Chords & Tabs

Version: 2 Type: Tab

I Am Tab

e--8-11-10--8-------|--8-11-10--8----13----|
B-------------11-11-|-------------11----11-|
G-------------------|----------------------|
D-------------------|----------------------|
A-------------------|----------------------|
E-------------------|----------------------|

e--8-11-10--8-------|--8-11-10--8----13----|
B-------------11-11-|-------------11----11-|
G-------------------|----------------------|
D-------------------|----------------------|
A-------------------|----------------------|
E-------------------|----------------------|
[ Tab from: http://www.guitartabs.cc/tabs/k/killing_heidi/i_am_tab_ver_2.html ]