Killers - Somebody Told Me Chords & Tabs

 

Somebody Told Me Chords & Tabs

Killers Chords & Tabs

Version: 1 Type: Tab 5 ratings
1 star 2 stars 3 stars 4 stars 5 stars
comments

Somebody Told Me Tab

Like this song

Intro:
e|----------------|-------------------------------------|
B|----------------|-------------------------------------|
G|--6--8--10--11--|--10--11--13--11--10--11--10---------|
D|--8--8---8---8--|---8---8---8---8---8---8---8---------|
A|----------------|-------------------------------------|
E|----------------|-------------------------------------|
 
e|--x-------------|--13--14--16--14------------------
B|--x-------------|-------------------------------------|
G|--x-------------|--10--11--14--11---------------------|
D|--x-------------|-------------------------------------|
A|----------------|-------------------------------------|
E|----------------|-------------------------------------|

                               
e|------------------------------|-----------------------|
B|--14------14--14----------14--|--14-14~~~-------------|
G|--11--13--13--11--13--13--13--|--13-13~~~-------------|
D|--11--11--11--11--11--11--11--|--11-11~~~-------------|
A|------------------------------|-----------------------|
E|------------------------------|-----------------------|

Chorus:
e|--1--2--4--1------------------------------------------|
B|--2--2--4--1------------------------------------------|
G|--3--3--5--2------------------------------------------|
D|--3--4--6--3------------------------------------------|
A|--1--4--6--3------------------------------------------|
E|-----2--4--1------------------------------------------|

Verse 2: Same as verse 1
e|--x-------------|--13--14--16--14---------------------|
B|--x-------------|-------------------------------------|
G|--x-------------|--10--11--14--11---------------------|
D|--x-------------|-------------------------------------|
A|----------------|-------------------------------------|
E|----------------|-------------------------------------|

[ Tab from: http://www.guitartabs.cc/tabs/k/killers/somebody_told_me_tab.html ]
(hidden behind the synth)       |slide down slowly
e|------------------------------|-----------------------|
B|--14------14--14----------14--|--14-------------------|
G|--11--13--13--11--13--13--13--|--13-------------------|
D|--11--11--11--11--11--11--11--|--11-------------------|
A|------------------------------|-----------------------|
E|------------------------------|-----------------------|

Chorus:
e|--1--2--4--1------------------------------------------|
B|--2--2--4--1------------------------------------------|
G|--3--3--5--2------------------------------------------|
D|--3--4--6--3------------------------------------------|
A|--1--4--6--3------------------------------------------|
E|-----2--4--1------------------------------------------|

Bridge:
e|-11-9--11-9--11-9----------11-9----------------|
B|------------------11-9-11--------11-9-11-------|
G|-----------------------------------------------|
D|-----------------------------------------------|
A|-----------------------------------------------|
E|-----------------------------------------------|

e|-11-9--11-9--11-9----------11-9----------------|
B|------------------11-9-11----------------------|
G|-----------------------------------------------|
D|-----------------------------------------------|
A|-----------------------------------------------|
E|-----------------------------------------------|

              |Let ring out with delay
e|-11-9-------|----------------------------------|
B|-------11-9-|--9-9~~---------------------------|
G|------------|--8-8~~---------------------------|
D|------------|----------------------------------|
A|------------|----------------------------------|
E|------------|----------------------------------|

Chorus:         |The last time |End on:
                |through it    |
                |changes to:   |
e|--1--2--4--1--|--1-----4--1--|--1-1------------|
B|--2--2--4--1--|--2--7--4--1--|--2-2------------|
G|--3--3--5--2--|--3--6--5--2--|--3-3------------|
D|--3--3--6--3--|--3--4--6--3--|--3-3------------|
A|--1--3--6--3--|--1--4--6--3--|--1-1------------|
E|-----2--4--1--|--------4--1--|-----------------|


its a great song, but a little diffucult. write me on:blinkfan@freemail.hu
thats for you, Niki
Comments