Killers - Smile Like You Mean It Chords & Tabs

 

Smile Like You Mean It Chords & Tabs

Killers Chords & Tabs

Version: 1 Type: Tab 0 ratings
1 star 2 stars 3 stars 4 stars 5 stars
comments

Smile Like You Mean It Tab

Killers - Smile Like You Mean It (solo)
tabbed by Kevin Ryan (x_is_loaded@hotmail.com)


[ Tab from: http://www.guitartabs.cc/tabs/k/killers/smile_like_you_mean_it_tab.html ]
E [-13----13----13----13----14----14----14----14-----------------------------------------------------]
B [----14----14----14----14----14----14----14----14--------------------------------------------------]
G [--------------------------------------------------15----15----16----16----18----18----18----18----]
D [-----------------------------------------------------16----16----16----16----16----16----16----16-]
A [--------------------------------------------------------------------------------------------------]
E [--------------------------------------------------------------------------------------------------]

E [----------------------------------------------------------------------------------------------------]
B [---------------------------------------------------19-------19-------19-------19--------------------]
G [-18----18-------------------16-15v-----15-18-18b20----18b20----18b20----18b20----18b20r18-16-15-15v-]
D [----16----18v--16v-------16---------16--------------------------------------------------------------]
A [--------------------18v-----------------------------------------------------------------------------]
E [----------------------------------------------------------------------------------------------------]
Comments