Killers - Smile Like You Mean It Chords & Tabs

 

Smile Like You Mean It Chords & Tabs

Killers Chords & Tabs

Version: 2 Type: Bass Tab 0 ratings
1 star 2 stars 3 stars 4 stars 5 stars
comments

Smile Like You Mean It Bass Tab

   
Intro (x2)
G|--------------------------------------------------------------------------|
D|----------8-8-8-----------------------------------------------------------|
A|-9-9-9-9-9----------------------------------------------------------------|
E|----------------9-9-9-9-9-9-9-11-11-11-11-11-9--11--11-11-11-11-11-11-11--|

Verse (x2)
G|--------------------------------------------------------------------------|
D|----------8-8-8-----------------------------------------------------------|
A|-9-9-9-9-9----------------------------------------------------------------|
E|----------------9-9-9-9-9-9-9-11-11-11-11-11-9--11--11-11-11-11-11-11-11--|


Break (play this immediately,and straight away return to verse again x2)
G|--------|
D|--------|
A|--------|
E|-7--7---|

Chorus (x2)
G|---------------------------------------------------------------------------|
D|---------------------------------------------------------------------------|
A|-----------------9-9999\8-888888-------------------------------------------|
E|-6666666/7-777777----------------------------------------------------------|
Verse (x1)
G|--------------------------------------------------------------------------|
D|----------8-8-8-----------------------------------------------------------|
A|-9-9-9-9-9----------------------------------------------------------------|
E|----------------9-9-9-9-9-9-9-11-11-11-11-11-9--11--11-11-11-11-11-11-11--|

Verse (continued)
G|--------------------------------------------------------------------------|
D|----------8-8-8-----------------------------------------------------------|
A|-9-9-9-9-9----------------------------------------------------------------|
E|---------------9-9-9-9-9-9-9-11-11-11-11-11-9--7-7-7-7-6-7-6-6-7-7-7-7-7--|

(continued)
G|---------------------------------------------------------------------------|
D|---------------------------------------------------------------------------|
A|---------------------------------------------------------------------------|
E|-7-7-7-7-------------------------------------------------------------------|

Verse (x2)
G|--------------------------------------------------------------------------|
D|----------8-8-8-----------------------------------------------------------|
A|-9-9-9-9-9----------------------------------------------------------------|
E|----------------9-9-9-9-9-9-9-11-11-11-11-11-9--11--11-11-11-11-11-11-11--|

Chorus (x2)
G|-------------------------------------------|
D|-------------------------------------------|
A|-----------------9-9999\8-888888-----------|
E|-6666666/7-777777--------------------------|
[ Tab from: http://www.guitartabs.cc/tabs/k/killers/smile_like_you_mean_it_btab_ver_2.html ]
Bridge (x2)
G|--------------------------------------------------------------------------|
D|--------------------------------------------------------------------------|
A|--------------------------------------------------------------------------|
E|-9-9-9-9-9-9-9/11--11-11-11-11-11-11-11-7--7-7-7-76--7--7-7-7-7-7-7-7-----|

(x2)
G|--------------------------------------------------------------------------|
D|--------------------------------------------------------------------------|
A|-11-11-11-11-11-11--11--11-11-11-11-11-11-11------------------------------|
E|---------------------------------------------11-11-11-11-11--9--11--11-11-|


G|--------------------------------------------------------------------------|
D|--------------------------------------------------------------------------|
A|--------------------------------------------------------------------------|
E|-11-11-11-11-11-----------------------------------------------------------|

(x2)
G|--------------------------------------------------------------------------|
D|--------------------------------------------------------------------------|
A|--------------16--16-16-16-16-16-16---------------------------------------|
E|-9--9-9-9-9-9-------------------------------------------------------------|

then play
G|--------------------------------------------------------------------------|
D|--------------------------------------------------------------------------|
A|--------------16--16-16-16-16-16-16------------------16--16-16-16-16-16---|
E|-9--9-9-9-9-9---------------------------9--9-9-9-9-9----------------------|
   (down the same streets that I knew...) play the 9 when the 1st synth comes in and the 16
when the 2nd synth comes in.

Chorus (x4)
G|-------------------------------------------|
D|-------------------------------------------|
A|-----------------9-9999\8-888888-----------|
E|-6666666/7-777777--------------------------|

Verse (x2)
G|--------------------------------------------------------------------------|
D|----------8-8-8-----------------------------------------------------------|
A|-9-9-9-9-9----------------------------------------------------------------|
E|----------------9-9-9-9-9-9-9-11-11-11-11-11-9--11--11-11-11-11-11-11-11--|

Outro
G|--------------------------------------------------------------------------|
D|--------8-8-8-------------------------------------------------------------|
A|-9-9-9--------------------------------------------------------------------|
E|--------------9-9-9--9-9-9-11-11-11--9-9-9-11-11-11--11-11-11-------------|


G|--------------------------------------------------------------------------|
D|-------8-8-8--------------------------------------------------------------|
A|-9-9-9--------------------------------------------------------------------|
E|-------------9-9-9--9-9-9/11----------------------------------------------|

This has got to be one of the greatest songs ever! And the bass part rules!
I thought I'd better submit this as I think some parts are different to the first tab 
was put on here.

| /  slide up
| \  slide down
| h  hammer-on
| p  pull-off
| ~  vibrato
| +  harmonic
| x  Mute note
==============================================================================
Comments