Killers - Smile Like You Mean It Chords & Tabs

 

Smile Like You Mean It Chords & Tabs

Killers Chords & Tabs

Version: 1 Type: Bass Tab 0 ratings
1 star 2 stars 3 stars 4 stars 5 stars
comments

Smile Like You Mean It Bass Tab

   
-------------------------------------------------------------------------------
		   Smile Like You Mean It - The Killers
-------------------------------------------------------------------------------

Tabbed By : Spartan101
e-mail: www.zpro@sbcglobal.net

Tuning: Standard
The second I heard the bass's rhythm in the song I wanted to learn it. Since there
was no tabs for it I made my own. I believe it's 95% correct.
Enjoy.

Intro (x2)
G|---------------------------------------------------------------------------|
D|----------8-8-8------------------------------------------------------------|
A|-9-9-9-9-9-----------------------------------------------------------------|
E|----------------9-9-9-9-9-9-9-11-11-11-11-11-9--11--11-11-11-11-11-11-11---|

Verse (repeat x2)
Break (play this immediately,and immediately return to verse again x2)
G|--------|
D|--------|
A|--------|
E|-7--7---|

Chorus (x2)
G|------------------------------------------|
D|------------------------------------------|
A|-----------------9-99998-888888-----------|
E|-66666667-777777--------------------------|

Verse (x1)
Play this in the second repitition's place 
G|---------------------------------------------------------------------------|
D|----------8-8-8------------------------------------------------------------|
A|-9-9-9-9-9-----------------------------------------------------------------|
E|---------------9-9-9-9-9-9-9-11-11-11-11-11-9--7-7-7-7-6-7-6-6-7-7-7-7-7---|
(continued)
G|--------|
D|--------|
A|--------|
E|-7-7----|

Break
Verse (x2)
Chorus
[ Tab from: http://www.guitartabs.cc/tabs/k/killers/smile_like_you_mean_it_btab.html ]
Bridge (x2)
G|---------------------------------------------------------------------------|
D|---------------------------------------------------------------------------|
A|---------------------------------------------------------------------------|
E|-9-9-9-9-9-9-911--11-11-11-11-11-11-11-7--7-7-7-76--7--7-7-7-7-7-7-7-------|
then....(x2)
G|---------------------------------------------------------------------------|
D|---------------------------------------------------------------------------|
A|-11-11-11-11-11-11--11--11-11-11-11-11-11-11-------------------------------|
E|---------------------------------------------11-11-11-11-11--9--11--11-11--|
(continued)
G|---------------------------------------------------------------------------|
D|---------------------------------------------------------------------------|
A|---------------------------------------------------------------------------|
E|-11-9-11-9-11--------------------------------------------------------------|
then
G|---------------------------------------------------------------------------|
D|---------------------------------------------------------------------------|
A|--------------16--16-16-16-16-16-16----------------------------------------|
E|-9--9-9-9-9-9--------------------------------------------------------------|
Chorus (x4)
Verse (x2)

Outro
G|---------------------------------------------------------------------------|
D|--------8-8-8--------------------------------------------------------------|
A|-9-9-9---------------------------------------------------------------------|
E|--------------9-9-9--9-9-9-11-11-11--9-9-9-11-11-11--11-11-11--------------|

G|---------------------------------------------------------------------------|
D|---------------------------------------------------------------------------|
A|---------------------------------------------------------------------------|
E|-11~-6~-0~~~---------------------------------------------------------------|
| /  slide up
| \  slide down
| h  hammer-on
| p  pull-off
| ~  vibrato
| +  harmonic
| x  Mute note
==============================================================================
Comments