Killers - On Top Chords & Tabs

 

On Top Chords & Tabs

Killers Chords & Tabs

Version: 1 Type: Tab 0 ratings
1 star 2 stars 3 stars 4 stars 5 stars
comments

On Top Tab

This is my first tab, but I figured I'd let you know how this awesome song is played.  
Killers are unbelievable!!!!

This song I believe is tuned a half step down (like every other killers song), but if 
don't want to tune just play every thing a fret below whats stated.

Bar the 13th fret on eb and Bb

Just the solo:
[ Tab from: http://www.guitartabs.cc/tabs/k/killers/on_top_tab.html ]
eb---15-15-------------15-15-------------15-15-------------15-15------------|
Bb----------17--13-----------17--13------------17--13-------------17--13----|
Gb--------------------------------------------------------------------------|
Db--------------------------------------------------------------------------|
Ab--------------------------------------------------------------------------|
Eb--------------------------------------------------------------------------|

eb---13-13-------------13-13-------------13-13-------------13-13------------|
Bb----------17--13-----------17--13------------17--13-------------17--13----|
Gb--------------------------------------------------------------------------|
Db--------------------------------------------------------------------------|
Ab--------------------------------------------------------------------------|
Eb--------------------------------------------------------------------------|

Play as needed.

comments: sifl_and_olly_show@yahoo.com
Comments