Killers - On Top Chords & Tabs

 

On Top Chords & Tabs

Killers Chords & Tabs

Version: 1 Type: Bass Tab 0 ratings
1 star 2 stars 3 stars 4 stars 5 stars
comments

On Top Bass Tab

I'm sure this is NOT 100% correct but it's close.

Standard Tunning.

 /=slide up
 \=slide down
Verse/Intro
G:--------------------------------------------------|
D:--------------------------------------------------|
A:----------------------------9--9-9-7-9-7----------|
E:--9-9-9-9-9-/-\-9-9-9-----7-7-7-7-/-\-------------|


Chorus/solo
G:-------------------------|
D:-------------------------|
A:---9---------7-----------|
E:--------7---------9------|
[ Tab from: http://www.guitartabs.cc/tabs/k/killers/on_top_btab.html ]
Break #1 "And we don't mean to satisfy..."
G:---------------------------------------------------------|
D:---------------------------------------------------------|
A:------------------------77777777777-999999999-1212121212-|
E:---101010101010101010------------------------------------|
That's a bunch of 10's and 12's!

Break #2 "it's just a cigarette in the mouth..."
G:------------------------------|
D:------------------------------|
A:-------7-------7-------7----9-|
E:---7-------7-------7----------|

END ON
E:--9--
Comments