Killers - Mr Brightside Chords & Tabs

 

Mr Brightside Chords & Tabs

Killers Chords & Tabs

Version: 12 Type: Tab

Mr Brightside Tab

Song:Mr.Brightside
Artist:The Killers
Difficulty:Intermediate~advanced
Advise:If you are a beginner,i would suggest
Intro:
e|-----------11-----|-----------11-----|-----------11-----|-----------11-----|
B|-----14--14--14---|-----14--14--14---|-----14--14--14---|-----14--14--14---|
G|---13--13------13-|---13--13------13-|---13--13------13-|---13--13------13-|
D|-11---------------|-10---------------|------------------|------------------|
A|------------------|------------------|--9---------------|--9---------------|
E|------------------|------------------|------------------|------------------|
   (Drums Enter)
e|-----------11-----|-----------11-----|-----------11-----|-----------11-----|
B|-----14--14--14---|-----14--14--14---|-----14--14--14---|-----14--14--14---|
G|---13--13------13-|---13--13------13-|---13--13------13-|---13--13------13-|
D|-11---------------|-10---------------|------------------|------------------|
A|------------------|------------------|--9---------------|--9---------------|
E|------------------|------------------|------------------|------------------|
Repeat until 0:39

She's touching his chest now,he takes off her dress now
e|------------------|------------------|------------------|-----------------|
B|------------4-----|------------4-----|------------4-----|------------4----|
G|------6---6---6---|------6---6---6---|------6---6---6---|------6---6---6--|
D|----6---6-------6-|----6---6-------6-|----6---6-------6-|----6---6--------|
A|------------------|------------------|------------------|-----------------|
E|--6---------------|--6---------------|--4---------------|--4--------------|

e|------------------|------------------|------------------|-----------------|
B|------------4-----|------------4-----|------------4-----|------------4----|
G|------6---6---6---|------6---6---6---|------6---6---6---|------6---6---6--|
D|----6---6-------6-|----6---6-------6-|----6---6-------6-|----6---6--------|
A|------------------|------------------|------------------|-----------------|
E|--0---------------|--0---------------|--0---------------|--0--------------|
Repeat until Chorus (1:05)

Chorus:
e|------------------|------------------|------------------|-----------------|
B|-6---6---6---6----|-7---7---7---7----|-9---9---9---9----|-----------------|
G|---6---6---6---6--|---6---6---6---6--|---6---6---6---6--|--8---6---5---6--|
D|------------------|------------------|------------------|-----------------|
A|------------------|------------------|------------------|-----------------|
E|------------------|------------------|------------------|-----------------|

e|------------------|------------------|------------------|-----------------|
B|-6---6---6---6----|-7---7---7---7----|-9---9---9---9----|-----------------|
G|---6---6---6---6--|---6---6---6---6--|---6---6---6---6--|--8---6---5---6--|
D|------------------|------------------|------------------|-----------------|
A|------------------|------------------|------------------|-----------------|
E|------------------|------------------|------------------|-----------------|

Why Its just the price I pay (1:18)
e|-4-----4-----4----|-6-----6-----6----|-9-----9-----9----|-----------------|
B|---6------6-----6-|---6------6-----6-|---6------6-----6-|-----------------|
G|------6-----6-----|------6-----6-----|------6-----6-----|--8---6---5---6--|
D|------------------|------------------|------------------|-----------------|
A|------------------|------------------|------------------|-----------------|
E|------------------|------------------|------------------|-----------------|

e|-4-----4-----4----|-6-----6-----6----|-9-----9-----9----|-----------------|
B|---6-----6-----6--|---6-----6-----6--|---6-----6-----6--|-----------------|
G|-----6-----6------|-----6-----6------|-----6-----6------|--8---6---5---6--|
D|------------------|------------------|------------------|-----------------|
A|------------------|------------------|------------------|-----------------|
E|------------------|------------------|------------------|-----------------|

Repeat the Chorus (1:31)
e|------------------|------------------|------------------|-----------------|
B|-6---6---6---6----|-7---7---7---7----|-9---9---9---9----|-----------------|
G|---6---6---6---6--|---6---6---6---6--|---6---6---6---6--|--8---6---5---6--|
D|------------------|------------------|------------------|-----------------|
A|------------------|------------------|------------------|-----------------|
E|------------------|------------------|------------------|-----------------|

e|------------------|------------------|------------------|-----------------|
B|-6---6---6---6----|-7---7---7---7----|-9---9---9---9----|-----------------|
G|---6---6---6---6--|---6---6---6---6--|---6---6---6---6--|--8---6---5---6--|
D|------------------|------------------|------------------|-----------------|
A|------------------|------------------|------------------|-----------------|
E|------------------|------------------|------------------|-----------------|
[ Tab from: http://www.guitartabs.cc/tabs/k/killers/mr_brightside_tab_ver_12.html ]
Repeat the beginning (1:43)
e|-----------11-----|-----------11-----|-----------11-----|-----------11-----|
B|-----14--14--14---|-----14--14--14---|-----14--14--14---|-----14--14--14---|
G|---13--13------13-|---13--13------13-|---13--13------13-|---13--13------13-|
D|-11---------------|-10---------------|------------------|------------------|
A|------------------|------------------|--9---------------|--9---------------|
E|------------------|------------------|------------------|------------------|
   (Drums Enter Again)
e|-----------11-----|-----------11-----|-----------11-----|-----------11-----|
B|-----14--14--14---|-----14--14--14---|-----14--14--14---|-----14--14--14---|
G|---13--13------13-|---13--13------13-|---13--13------13-|---13--13------13-|
D|-11---------------|-10---------------|------------------|------------------|
A|------------------|------------------|--9---------------|--9---------------|
E|------------------|------------------|------------------|------------------|
Repeat this 3 times

She's touching his chest now,he takes off her dress now (2:09)
e|------------------|------------------|------------------|------------------|
B|------------4-----|------------4-----|------------4-----|------------4-----|
G|------6---6---6---|------6---6---6---|------6---6---6---|------6---6---6---|
D|----6---6-------6-|----6---6-------6-|----6---6-------6-|----6---6-------6-|
A|--6---------------|--6---------------|--4---------------|--4---------------|
E|------------------|------------------|------------------|------------------|

e|------------------|------------------|------------------|------------------|
B|------------4-----|------------4-----|------------4-----|------------4-----|
G|------6---6---6---|------6---6---6---|------6---6---6---|------6---6---6---|
D|----6---6-------6-|----6---6-------6-|----6---6-------6-|----6---6-------6-|
A|------------------|------------------|------------------|------------------|
E|--0---------------|--0---------------|--0---------------|--0---------------|

Repeat the Chorus (2:35)
e|------------------|------------------|------------------|------------------|
B|-6---6---6---6----|-7---7---7---7----|-9---9---9---9----|------------------|
G|---6---6---6---6--|---6---6---6---6--|---6---6---6---6--|--8---6---5---6---|
D|------------------|------------------|------------------|------------------|
A|------------------|------------------|------------------|------------------|
E|------------------|------------------|------------------|------------------|

e|------------------|------------------|------------------|-----------------|
B|-6---6---6---6----|-7---7---7---7----|-9---9---9---9----|-----------------|
G|---6---6---6---6--|---6---6---6---6--|---6---6---6---6--|--8---6---5---6--|
D|------------------|------------------|------------------|-----------------|
A|------------------|------------------|------------------|-----------------|
E|------------------|------------------|------------------|-----------------|

Why it's just the price i pay (2:48)
e|-4-----4-----4----|-6-----6-----6----|-7-----7-----7----|-----------------|
B|---6------6-----6-|---6------6-----6-|---6------6-----6-|-----------------|
G|------6-----6-----|------6-----6-----|------6-----6-----|--8---6---5---6--|
D|------------------|------------------|------------------|-----------------|
A|------------------|------------------|------------------|-----------------|
E|------------------|------------------|------------------|-----------------|

e|-4-----4-----4----|-6-----6-----6----|-7-----7-----7----|-----------------|
B|---6-----6-----6--|---6-----6-----6--|---6-----6-----6--|-----------------|
G|-----6-----6------|-----6-----6------|-----6-----6------|--8---6---5---6--|
D|------------------|------------------|------------------|-----------------|
A|------------------|------------------|------------------|-----------------|
E|------------------|------------------|------------------|-----------------|

Little Guitar Solo (3:01)
e|------------------|------------------|------------------|------------------|
B|-6---6---7---9----|-7---9---7---6----|-6---6---7---6----|------------------|
G|---6---6---6---6--|---6---6---6---6--|---6---6---6---6--|--8---6---5\------|
D|------------------|------------------|------------------|------------------|
A|------------------|------------------|------------------|------------------|
E|------------------|------------------|------------------|------------------|

e|------------------|---------6---9----|------------------|-----------------|
B|-6---6---7---9----|-7---9------------|-6---6---7---6----|-----------------|
G|---6---6---6---6--|---6---6---6---6--|---6---6---6---6--|--8---6---5---6--|
D|------------------|------------------|------------------|-----------------|
A|------------------|------------------|------------------|-----------------|
E|------------------|------------------|------------------|-----------------|

I never... (3:14)
e|------------------|------------------|------------------|-----------------|
B|-6---6---6---6----|-7---7---7---7----|-9---9---9---9----|-----------------|
G|---6---6---6---6--|---6---6---6---6--|---6---6---6---6--|--8---6---5---6--|
D|------------------|------------------|------------------|-----------------|
A|------------------|------------------|------------------|-----------------|
E|------------------|------------------|------------------|-----------------|

e|------------------|------------------|------------------|-----------------|
B|-6---6---6---6----|-7---7---7---7----|-9---9---9---9----|-----------------|
G|---6---6---6---6--|---6---6---6---6--|---6---6---6---6--|--8---6---5---6--|
D|------------------|------------------|------------------|-----------------|
A|------------------|------------------|------------------|-----------------|
E|------------------|------------------|------------------|-----------------|
You should repeat this part until the end (4:11)

Last time (4:12) play
e|----------------|
B|----------------|
G|--8---6---5-----|
D|----------------|
A|----------------|
E|----------------|
Hold the last note

Well this is it!I hope you enjoyed it and managed to learn the song.Of course,if there 
any questions or comments,please email me at Tallyoda604@yahoo.com. Thanks for visiting 
tab!!!
THE KiLLERS ROCK!!WOOT!!