Killers - Mr Brightside Chords & Tabs

 

Mr Brightside Chords & Tabs

Killers Chords & Tabs

Version: 11 Type: Tab 0 ratings
1 star 2 stars 3 stars 4 stars 5 stars
comments

Mr Brightside Tab

   
Mr Brightside as recorded by The Killers

   Intro
    Dadd9                    Dadd9/C#
   4/4
    Gtr I
||--------------0----------|-------------0----------|
||o---------------17-------|---------------17-------|
||--------19---------19----|-------19---------19----|
||-----16----16---------16-|----16----16---------16-|
||o-17---------------------|-16---------------------|
||-------------------------|------------------------|


  Dadd9/G
                                                    3x
|-------------0----------|-------------0------------||
|---------------17-------|---------------17--------o||
|-------19---------19----|-------19---------19------||
|----16----16---------16-|----16----16---------16---||
|------------------------|-------------------------o||
|-15---------------------|-15-----------------------||


   1st Verse
    Dadd9                    Dadd9/C#
   4/4
    Gtrs I, II
||--------------0----------|-------------0----------|
||o---------------17-------|---------------17-------|
||--------19---------19----|-------19---------19----|
||-----16----16---------16-|----16----16---------16-|
||o-17---------------------|-16---------------------|
||-------------------------|------------------------|


  Dadd9/G
|-------------0----------|-------------0------------||
|---------------17-------|---------------17--------o||
|-------19---------19----|-------19---------19------||
|----16----16---------16-|----16----16---------16---||
|------------------------|-------------------------o||
|-15---------------------|-15-----------------------||


   Pre-Chorus
    $
    Em7/B                               Em7/A
||----------0-------|---------0-------|---------0-------|---------0-------|
||o-----------5-----|-----------5-----|-----------5-----|-----------5-----|
||------7-------7---|-----7-------7---|-----7-------7---|-----7-------7---|
||----0---0-------0-|---0---0-------0-|---0---0-------0-|---0---0-------0-|
||o-----------------|-----------------|-----------------|-----------------|
||--7---------------|-7---------------|-5---------------|-5---------------|
|
|   Gtr V
||------------------|-----------------|-----------------|-----------------|
||o-----------------|-----------------|-----------------|-----------------|
||------------------|-----------------|-----------------|-----------------|
||----9---9---9---9-|---9---9---9---9-|---7---7---7---7-|---7---7---7---7-|
||o-----------------|-----------------|-----------------|-----------------|
||--7---7---7---7---|-7---7---7---7---|-5---5---5---5---|-5---5---5---5---|


  Em7/G
|---------0-------|---------0-------|---------0-------|---------0---------||
|-----------5-----|-----------5-----|-----------5-----|-----------5------o||
|-----7-------7---|-----7-------7---|-----7-------7---|-----7-------7-----||
|---0---0-------0-|---0---0-------0-|---0---0-------0-|---0---0-------0---||
|-----------------|-----------------|-----------------|------------------o||
|-3---------------|-3---------------|-3---------------|-3-----------------||
|
|-----------------|-----------------|-----------------|-------------------||
|-------3---5-----|-------3---5-----|-----------------|---3---3----------o||
|---4-----------4-|---4-----------4-|---4---4---2---4-|-----------2---4---||
|-----------------|-----------------|-----------------|-------------------||
|-----------------|-----------------|-----------------|------------------o||
|-3---3---3---3---|-3---3---3---3---|-3---3---3---3---|-3---3---3---3-----||


   Chorus
    D5                        G5
    Gtr VI
     |  |  |  |  |  |  |  |    |  |  |  |  |  |  |  |
     /  /  /  /  /  /  /  /    /  /  /  /  /  /  /  /

    Gtrs III, IV
||--------------------------|-------------------------|
||o-------------------------|-------------------------|
||--11----11----11----11----|-12----12----12----12----|
||-----12----12----12----12-|----12----12----12----12-|
||o-------------------------|-------------------------|
||--------------------------|-------------------------|


  B5                        A5
   |  |  |  |  |  |  |  |   | | | | | | |  |
   /  /  /  /  /  /  /  /   / / / / / / /  /

|-------------------------|---------------------||
|-------------------------|--------------------o||
|-14----14----14----14----|-9---7---6---7-(7)/--||
|----12----12----12----12-|---7---7---7----7/---||
|-------------------------|--------------------o||
|-------------------------|---------------------||


    D5                G5
    | | | | | | | |   | | | | | | | |
    / / / / / / / /   / / / / / / / /

||--5-----5-----5---|-7-----7-----7---|
||o---7-----7-----7-|---8-----8-----8-|
||------7-----7-----|-----7-----7-----|
||------------------|-----------------|
||o-----------------|-----------------|
||------------------|-----------------|


                                 To Coda
  B5                      A5
   |  | |  |  | |  |  |   | | | | | | | |
   /  / /  /  / /  /  /   / / / / / / / /

|-10------10------10----|------------------||
|----10------10------10-|-----------------o||
|-------7-------7-------|-9---7---6---7----||
|-----------------------|---7---7---7---7--||
|-----------------------|-----------------o||
|-----------------------|------------------||


  D5                        G5
   |  |  |  |  |  |  |  |    |  |  |  |  |  |  |  |
   /  /  /  /  /  /  /  /    /  /  /  /  /  /  /  /

|-------------------------|-------------------------|
|-------------------------|-------------------------|
|-11----11----11----11----|-12----12----12----12----|
|----12----12----12----12-|----12----12----12----12-|
|-------------------------|-------------------------|
|-------------------------|-------------------------|
|
| Gtr V
|-14----------------------|-17----------------------|
|-------------------------|-------------------------|
|-11----------------------|-14----------------------|
|-------------------------|-------------------------|
|-------------------------|-------------------------|
|-------------------------|-------------------------|


  B5                        A5
   |  |  |  |  |  |  |  |     |  | | | | | |  |
   /  /  /  /  /  /  /  /     /  / / / / / /  /

|-------------------------|------------------------|
|-------------------------|------------------------|
|-14----14----14----14----|---9----7---6---7-(7)/--|
|----12----12----12----12-|------7---7---7----7/---|
|-------------------------|------------------------|
|-------------------------|------------------------|
|
|-------------------------|------------------------|
|-15----------------------|-(15)-------------------|
|-------------------------|------------------------|
|-12----------------------|-(12)-------------------|
|-------------------------|------------------------|
|-------------------------|------------------------|


  D5                        G5
   |  |  |  |  |  |  |  |    |  |  |  |  |  |  |  |
   /  /  /  /  /  /  /  /    /  /  /  /  /  /  /  /

|-------------------------|-------------------------|
|-------------------------|-------------------------|
|-11----11----11----11----|-12----12----12----12----|
|----12----12----12----12-|----12----12----12----12-|
|-------------------------|-------------------------|
|-------------------------|-------------------------|
|
|-14----------------------|-17----------------------|
|-------------------------|-------------------------|
|-11----------------------|-14----------------------|
|-------------------------|-------------------------|
|-------------------------|-------------------------|
|-------------------------|-------------------------|


  B5                          A5
    |   |  |  |  |  |  |  |     |  |  | | | | |  |
    /   /  /  /  /  /  /  /     /  /  / / / / /  /

|---------------------------|-------------------------|
|---------------------------|-------------------------|
|--14-----14----14----14----|---9-----7---6---7-(7)/--|
|------12----12----12----12-|------7----7---7----7/---|
|---------------------------|-------------------------|
|---------------------------|-------------------------|
|
|-(17)----15----------14----|-(14)---12---------------|
|---------------------------|-------------------------|
|-(14)----12----------11----|-(11)----9---------------|
|---------------------------|-------------------------|
|---------------------------|-------------------------|
|---------------------------|-------------------------|

[ Tab from: http://www.guitartabs.cc/tabs/k/killers/mr_brightside_tab_ver_11.html ]
 2nd Verse
  Dadd9                    Dadd9/C#
  Gtrs I, II
|-------------0----------|---------------0----------|
|---------------17-------|-----------------17-------|
|-------19---------19----|---------19---------19----|
|----16----16---------16-|------16----16---------16-|
|-17---------------------|--16----------------------|
|------------------------|--------------------------|
|
|  >
|-10---------------------|-(10)---------------------|
|------------------------|--------------------------|
|--7---------------------|--(7)---------------------|
|------------------------|--------------------------|
|------------------------|--------------------------|
|------------------------|--------------------------|


  Dadd9/G
|---------------0----------|---------------0-----------|
|-----------------17-------|-----------------17--------|
|---------19---------19----|---------19---------19-----|
|------16----16---------16-|------16----16---------16--|
|--------------------------|---------------------------|
|--15----------------------|--15-----------------------|
|
|-(10)---------------------|-(10)----------------------|
|--------------------------|---------------------------|
|--(7)---------------------|--(7)----------------------|
|--------------------------|---------------------------|
|--------------------------|---------------------------|
|--------------------------|---------------------------|


    Dadd9                    Dadd9/C#
    Gtrs I, II
||--------------0----------|-------------0----------|
||o---------------17-------|---------------17-------|
||--------19---------19----|-------19---------19----|
||-----16----16---------16-|----16----16---------16-|
||o-17---------------------|-16---------------------|
||-------------------------|------------------------|


                                   D.S. al Coda
  Dadd9/G
                                                   3x
|-------------0----------|-------------0-----------||
|---------------17-------|---------------17-------o||
|-------19---------19----|-------19---------19-----||
|----16----16---------16-|----16----16---------16--||
|------------------------|------------------------o||
|-15---------------------|-15----------------------||


   Interlude
    &
    D                         G
    Gtrs III, IV
||--------------------------|-------------------------|
||o-------------------------|-------------------------|
||--11----11----12----14----|-12----14----12----11----|
||-----12----12----12----12-|----12----12----12----12-|
||o-------------------------|-------------------------|
||--------------------------|-------------------------|


  B                         A
|-------------------------|-------------------||
|-------------------------|------------------o||
|-11----11----12----11----|-9---7---6-(6)/----||
|----12----12----12----12-|---7---7----7/-----||
|-------------------------|------------------o||
|-------------------------|-------------------||


 Out-Chorus
  D5                        G5
  Gtr VI
   |  |  |  |  |  |  |  |    |  |  |  |  |  |  |  |
   /  /  /  /  /  /  /  /    /  /  /  /  /  /  /  /

|-------------------------|-------------------------|
|-------------------------|-------------------------|
|-11----11----11----11----|-12----12----12----12----|
|----12----12----12----12-|----12----12----12----12-|
|-------------------------|-------------------------|
|-------------------------|-------------------------|
|
| Gtr V
|-14----------------------|-17----------------------|
|-------------------------|-------------------------|
|-11----------------------|-14----------------------|
|-------------------------|-------------------------|
|-------------------------|-------------------------|
|-------------------------|-------------------------|


  B5                        A5
   |  |  |  |  |  |  |  |     |  | | | | | |  |
   /  /  /  /  /  /  /  /     /  / / / / / /  /

|-------------------------|------------------------|
|-------------------------|------------------------|
|-14----14----14----14----|---9----7---6---7-(7)/--|
|----12----12----12----12-|------7---7---7----7/---|
|-------------------------|------------------------|
|-------------------------|------------------------|
|
|-------------------------|------------------------|
|-15----------------------|-(15)-------------------|
|-------------------------|------------------------|
|-12----------------------|-(12)-------------------|
|-------------------------|------------------------|
|-------------------------|------------------------|


  D5                        G5
   |  |  |  |  |  |  |  |    |  |  |  |  |  |  |  |
   /  /  /  /  /  /  /  /    /  /  /  /  /  /  /  /

|-------------------------|-------------------------|
|-------------------------|-------------------------|
|-11----11----11----11----|-12----12----12----12----|
|----12----12----12----12-|----12----12----12----12-|
|-------------------------|-------------------------|
|-------------------------|-------------------------|
|
|-14----------------------|-17----------------------|
|-------------------------|-------------------------|
|-11----------------------|-14----------------------|
|-------------------------|-------------------------|
|-------------------------|-------------------------|
|-------------------------|-------------------------|


  B5                          A5
    |   |  |  |  |  |  |  |     |  |  | | | | |  |
    /   /  /  /  /  /  /  /     /  /  / / / / /  /

|---------------------------|-------------------------|
|---------------------------|-------------------------|
|--14-----14----14----14----|---9-----7---6---7-(7)/--|
|------12----12----12----12-|------7----7---7----7/---|
|---------------------------|-------------------------|
|---------------------------|-------------------------|
|
|-(17)----15----------14----|-(14)---12---------------|
|---------------------------|-------------------------|
|-(14)----12----------11----|-(11)----9---------------|
|---------------------------|-------------------------|
|---------------------------|-------------------------|
|---------------------------|-------------------------|


  D5                        G5
   |  |  |  |  |  |  |  |    |  |  |  |  |  |  |  |
   /  /  /  /  /  /  /  /    /  /  /  /  /  /  /  /

|-------------------------|-------------------------|
|-------------------------|-------------------------|
|-11----11----11----11----|-12----12----12----12----|
|----12----12----12----12-|----12----12----12----12-|
|-------------------------|-------------------------|
|-------------------------|-------------------------|
|
|-12-------14-------10----|-12-------14-------10----|
|-------------------------|-------------------------|
|--9-------11--------7----|--9-------11--------7----|
|-------------------------|-------------------------|
|-------------------------|-------------------------|
|-------------------------|-------------------------|


  B5                        A5
   |  |  |  |  |  |  |  |    | | | | | |  |  |
   /  /  /  /  /  /  /  /    / / / / / /  /  /

|-------------------------|-----------------------|
|-------------------------|-----------------------|
|-14----14----14----14----|--9---7---6----7-(7)/--|
|----12----12----12----12-|----7---7---7-----7/---|
|-------------------------|-----------------------|
|-------------------------|-----------------------|
|
|-12-------14-------15----|-14-----------10-------|
|-------------------------|-----------------------|
|--9-------11-------12----|-11------------7-------|
|-------------------------|-----------------------|
|-------------------------|-----------------------|
|-------------------------|-----------------------|


  D5                        G5
   |  |  |  |  |  |  |  |    |  |  |  |  |  |  |  |
   /  /  /  /  /  /  /  /    /  /  /  /  /  /  /  /

|-------------------------|-------------------------|
|-------------------------|-------------------------|
|-11----11----11----11----|-12----12----12----12----|
|----12----12----12----12-|----12----12----12----12-|
|-------------------------|-------------------------|
|-------------------------|-------------------------|
|
|-12-------10-------10----|-12-------10-------10----|
|-------------------------|-------------------------|
|--9--------7--------7----|--9--------7--------7----|
|-------------------------|-------------------------|
|-------------------------|-------------------------|
|-------------------------|-------------------------|


  B5                        A
   |  |  |  |  |  |  |  |
   /  /  /  /  /  /  /  /

|-------------------------|---------------|---------*|
|-------------------------|---------------|---------*|
|-14----14----14----14----|--9---7---6----|--(6)----*|
|----12----12----12----12-|--7---7---7----|--(7)----*|
|-------------------------|---------------|---------*|
|-------------------------|---------------|---------*|
|
|-12----14-10-------10----|-12--14--12----|-(12)----*|
|-------------------------|---------------|---------*|
|--9----11--7--------7----|--9--11---9----|--(9)----*|
|-------------------------|---------------|---------*|
|-------------------------|---------------|---------*|
|-------------------------|---------------|---------*|
Comments