Killers - Mr Brightside Chords & Tabs

 

Mr Brightside Chords & Tabs

Killers Chords & Tabs

Version: 1 Type: Tab 8 ratings
1 star 2 stars 3 stars 4 stars 5 stars
comments

Mr Brightside Tab

This song was tabbed before but the intro had bad
timing.  This one is correct.

Artist: The Killers
Song: Mr. Brightside
Standard Tuning (EBGDAE)


Intro 
(2x)

E-------9---11--9---9--------9-----11--9---9-]
B-----9-----------9--------9-------------9--]
G---------10---------------------10------------]
D--11--------------------10--------------------]
A----------------------------------------------]
E----------------------------------------------]

E-------9----11-9--9---------9------11--9---9--]
B-----9-----------9--------9--------------9--]
G---------10---------------------10------------]
D----------------------------------------------]
A--9----------------------9--------------------]
E----------------------------------------------]


Verse 
(4x)

E-------9-----11--9------------9------11--9----]
B-----9-----9-------9--------9-------9------9--]
G---------10---------------------10------------]
D--11--------------------10--------------------]
A----------------------------------------------]
E----------------------------------------------]

E-------9-----11--9------------9------11--9----]
B-----9-----9-------9--------9-------9------9--]
G---------10---------------------10------------]
D----------------------------------------------]
A--9----------------------9--------------------]
E----------------------------------------------]



Bridge - "Chest now..."

E-------------------------------------------]
B-------------------------------------------]
G-------------------------------------------]
D--8--8--8--8----6--6--6--6----4--4--4--4---]
A--8--8--8--8----6--6--6--6----4--4--4--4---]
E--6--6--6--6----4--4--4--4----2--2--2--2---]


E-------------------------------------------]
B-------------------------------------------]
G-------------------------------------------]
D--8--8--8--8----6--6--6--6----4--4--4--4---]
A--8--8--8--8----6--6--6--6----4--4--4--4---]
E--6--6--6--6----4--4--4--4----2--2--2--2---]


Chorus - "Jealousy..."
(2x)
E-------------------------------------------]
B-------------------------------------------]
G--10---10---10---10---11---11---11---11----]
D----11---11---11---11---11---11---11---11--]
A-------------------------------------------]
E-------------------------------------------]
[ Tab from: http://www.guitartabs.cc/tabs/k/killers/mr_brightside_tab.html ]
E-------------------------------------------]
B-------------------------------------------]
G--13---13---13---13------------------------]
D----11---11---11-----13---11---10---11-----]
A-------------------------------------------]
E-------------------------------------------]

(2x)
E-------------------------------------------]
B--9----9------9------11----11----11--------]
G----10---10----10------11----11----11------]
D------11---11------------11----11----------]
A-------------------------------------------]
E-------------------------------------------]

E-------------------------------------------]
B--14----14----14---------------------------]
G----13----13----13-------------------------]
D------11----11--------13---11---10---11----]
A-------------------------------------------]
E-------------------------------------------]



Solo Right after 2nd chorus - Ending
(2x)
E-------------------------------------------]
B-------------------------------------------]
G--10---10---11---13---11---13---11---10----]
D----11---11---11---11---11---11---11---11--]
A-------------------------------------------]
E-------------------------------------------]

E-------------------------------------------]
B-------------------------------------------]
G--10---10---11---10------------------------]
D----11---11---11-----13---11---10---6------]
A-------------------------------------------]
E-------------------------------------------]






(3x) - "I never..."
E-------------------------------------------]
B-------------------------------------------]
G--10---10---10---10---11---11---11---11----]
D----11---11---11---11---11---11---11---11--]
A-------------------------------------------]
E-------------------------------------------]

E-------------------------------------------]
B-------------------------------------------]
G--13---13---13---13------------------------]
D----11---11---11-----13---11---10---11-----]
A-------------------------------------------]
E-------------------------------------------]

(1x)
E-------------------------------------------]
B-------------------------------------------]
G--10---10---10---10---11---11---11---11----]
D----11---11---11---11---11---11---11---11--]
A-------------------------------------------]
E-------------------------------------------]

E-------------------------------------------]
B-------------------------------------------]
G--13---13---13---13------------------------]
D----11---11---11-----13---11---10----------]
A-------------------------------------------]
E-------------------------------------------]
			
Comments