Killers - Mr Brightside Chords & Tabs

 

Mr Brightside Chords & Tabs

Killers Chords & Tabs

Version: 2 Type: Bass Tab 0 ratings
1 star 2 stars 3 stars 4 stars 5 stars
comments

Mr Brightside Bass Tab

The Killers - Mr Brightside

Intro

Come in at the start of the "It started out with a kiss..." bar

G--66666666-55555555-------------------|
D--------------------4444444444444444--|
A--------------------------------------|
E--------------------------------------|

Then into verse

G-------------------------------------|
D-------------------------------------|   
A--44444444-33333333------------------|
E--------------------2222222222222222-|

G-------------------------------------|
D-------------------/4444444444444444-|
A--44444444-33333333------------------|
E-------------------------------------|

Bridge

G----------------------------------------------------------|
D----------------------------------------------------------|
A----------8-6-4---------8-6-4---------6-4-1---------1-3-4-|
E--6-6-6-6-------4-4-4-4-------2-2-2-2-------2-2-2-2-------|

G--------------------------------------------------------------|
D-------------------------------------------------------444444-|
A----------8-6-4---------8-6-4---------------------------------|
E--6-6-6-6-------4-4-4-4-------1222222212222222122212221-------|

Chorus

(Part A)  G--------------------------------------|    (x 2)
          D-----------44444444-------------------|
          A--44444444----------------------------|
          E--------------------66666666-44444444-|
[ Tab from: http://www.guitartabs.cc/tabs/k/killers/mr_brightside_btab_ver_2.html ]
G--------------------------------------|
D--------------------------------------|
A--44444444----------------------------|
E-----------22222222-66666666-44444444-|

G--------------------------------------|
D-----------44444444-88888888-66666666-|
A--44444444----------------------------|
E--------------------------------------|

Repeat Chorus Part A during synth break

Verse 2

G-------------------------------------|
D-------------------------------------|   
A--44444444-33333333------------------|
E--------------------2222222222222222-|

G-------------------------------------|
D-------------------------------------|   
A--44444444-33333333--------------9/4-|
E--------------------2----------------|

G-------------------------------------|
D-------------------------------------|   
A--44444444-33333333------------------|
E--------------------2222222222222222-|

G-------------------------------------|
D--------------------4444444444444444-|   
A--44444444-33333333------------------|
E-------------------------------------|

Back to Bridge...

Then into Chorus...

"Breakdown"

G------------------------------------|  (x 2)
D--3*--------------------------------|   
A-----------4*-----------------------|
E-------------------6*------4*-------|

Back in to Chorus, with a flourish at the end:

G---------------------------------------|
D-----------44444444-88888888-6---------|
A--44444444---------------------6-------|
E---------------------------------4*----|


Ta-da.
Comments