Killers - Mr Brightside Chords & Tabs

 

Mr Brightside Chords & Tabs

Killers Chords & Tabs

Version: 1 Type: Bass Tab 0 ratings
1 star 2 stars 3 stars 4 stars 5 stars
comments

Mr Brightside Bass Tab

The Killers - Mr. Brightside

I couldnt find a tab for this so i tabbed it myself to put on here, its probably not perfect
but it sounds fairly close to me.

* = Let Ring

Intro
G--------------------------------------------------------------|
D--------------------------------------------------------------|
A--------------------------------------------------------------|     X2
E--9*----------8*-------------2*--------------2*---------------|

Verse
G-----------------------------------------------------------------|
D-----------------------------------------------------------------|
A-----------------------------------------------------------------|
E--9-9-9-9-9-9-9-9-8-8-8-8-8-8-8-8-2-2-2-2-2-2-2-2-2-2-2-2-2------|

Prechorus
G----------------------------------------------------------------------|
D----------------------------------------------------------------------|
A----------------------------------------------------------------------|
E-9-9-9--8/9-9-8/9-9-9-9-9-9-9-9-9-9-8/9-9-8/9-9-9-9-9-9-22222222222---|
[ Tab from: http://www.guitartabs.cc/tabs/k/killers/mr_brightside_btab.html ]
Chorus
G------------------------------------------------------------------------------|
D------------------------------------------------------------------------------|
A------------------------------------------------------------------------------|
E--8/9-9-8/9-8/9-8/9-9-8/9-8/9-8/9-9-8/9-9-8/9-8/9-8/9-9-8/9-8/9-8/9-9---------|

G--------------------------------------------------------------------------|
D--------------------------------------------------------------------------|
A-----8/9-9-8/9-8/9-8/9-9-8/9-8/9-8/9-9-8/9-9-8/9-8/9-8/9-9-8/9-8/9-8/9-9--|
E--------------------------------------------------------------------------|

G----------------------------------------------------------------------------|
D----------------------------------------------------------------------------|
A------------9-9-9-11-11-11----9--8------------------------------------------|
E---9-9-9---------------------------------9--8-------------------------------|

-Verse

-Pre-Chorus

-Chorus

Ending-

       "I'll Never....."
G--------------------------------------------------------------------------|
D--------------------------------------------------------------------------|
A------------9-9-9-9--11-11-11-11---9---8----------------------------------|
E--9-9-9-9-----------------------------------9---8-------------------------|

Thats about it, i'm sure there's something to critisise somewhere,
Alter it as you wish
Tony
Comments