Killers - Just Another Girl Chords & Tabs

 

Just Another Girl Chords & Tabs

Killers Chords & Tabs

Version: 2 Type: Bass Tab 0 ratings
1 star 2 stars 3 stars 4 stars 5 stars
comments

Just Another Girl Bass Tab

   
Band: The Killers
Song: Just Another Girl
Album: Direct Hits
Tuning: EADG (standard)

Come in at 0:06

Verse
G|----------------------------------------------------------------|
D|-4------------------------------3-------------------------------|
A|------------------------------------------------1---------------|
E|----------------------------------------------------------------|
                                                                   X3
G|----------------------------------------------------------------|
D|-1--------------------------------------------------------------|
A|--------------------------------2---------------4---------------|
E|----------------------------------------------------------------|

Chorus (come in at 1:07)

G|----------------------------------------------------------------|
D|-------------------------------------------------------4-4-4-3-3|
A|---------------------------------4-4-4-4-4-4-4-4-1-1-1----------|
E|-2-2-2-2-2-2-2-2-2-2-2-2-2-2-2-2--------------------------------|

G|----------------------------------------------------------------|
D|-1-1-1-1-1-1-1-1-1-1-1-1-3-3-4-4--------------------------------|
A|---------------------------------2-2-2-2-2-2-2-2-4--------------|
E|----------------------------------------------------------------|

Bridge/Verse (almost the same as chorus) 1:21

G|----------------------------------------------------------------|
D|-------------------------------------------------------4-4-4-3-3|
A|---------------------------------4-4-4-4-4-4-4-4-1-1-1----------|
E|-2-2-2-2-2-2-2-2-2-2-2-2-2-2-2-2--------------------------------|
                                                                   X2
G|----------------------------------------------------------------|
D|-1-1-1-1-1-1-1-1-1-1-1-1-3-3-4-4--------------------------------|
A|---------------------------------2-2-2-2-2-2-2-2-4-4-4-4-4-4-4-4|
E|----------------------------------------------------------------|


G|----------------------------------------------------------------|
D|-------------------------------------------------------4-4-4-3-3|
A|---------------------------------4-4-4-4-4-4-4-4-1-1-1----------|
E|-2-2-2-2-2-2-2-2-2-2-2-2-2-2-2-2--------------------------------|

G|----------------------------------------------------------------|
D|-1-1-1-1-1-1-1-1-1-1-1-1-3-3-4-4--------------------------------|
A|---------------------------------2-2-2-2-2-2-2-2-4--------------|
E|----------------------------------------------------------------|

2nd Chorus 2:03

G|----------------------------------------------------------------|
D|-------------------------------------------------------4-4-4-3-3|
A|---------------------------------4-4-4-4-4-4-4-4-1-1-1----------|
E|-2-2-2-2-2-2-2-2-2-2-2-2-2-2-2-2--------------------------------|
                                                                   X2
G|----------------------------------------------------------------|
D|-1-1-1-1-1-1-1-1-1-1-1-1-3-3-4-4--------------------------------|
A|---------------------------------2-2-2-2-2-2-2-2-4-4-4-4-4-4-4-4|
E|----------------------------------------------------------------|

Bridge: 1:31
[ Tab from: http://www.guitartabs.cc/tabs/k/killers/just_another_girl_btab_ver_2.html ]
G|------------------------------------------------------6---------|
D|----------------1-----3-----4-------------------6-----------6\--|
A|--------------------------------4-------------------------------|
E|-2--------------------------------------------------------------|
                                                                   
G|----------------------------4-----------------------------------|
D|------------------------4-----------------------------6-----1---|
A|-2------------------------------4-------------------------------|
E|----------------------------------------------------------------|

G|------------------------------------------------------6-6-6-----|
D|----------------1-1-1-3-3-3-4-4-----------------6-6-6-------6-6\|
A|--------------------------------4-4-4-4-4-4-4-4-----------------|
E|-2-2-2-2-2-2-2-2------------------------------------------------|
                                                                   
G|----------------------------4-4---------------------------------|
D|------------------------4-4-------------------------------------|
A|-2-2-2-2-2-2-2-2-2-2-2-2--------4-4-4-4-4-4-4-4-4-4-4-4-4-4-4-4-|
E|----------------------------------------------------------------|

G|-------------------------6-6-6-6\|
D|---------------------------------|
A|-4-4-4-4-4-4-4-4-4-4-4-4---------|
E|---------------------------------|

 Final Chorus/ Outro: 3:03

G|----------------------------------------------------------------|
D|-------------------------------------------------------4-4-4-3-3|
A|---------------------------------4-4-4-4-4-4-4-4-1-1-1----------|
E|-2-2-2-2-2-2-2-2-2-2-2-2-2-2-2-2--------------------------------|
                                                                   x2
G|----------------------------------------------------------------|
D|-1-1-1-1-1-1-1-1-1-1-1-1-3-3-4-4--------------------------------|
A|---------------------------------2-2-2-2-2-2-2-2-4-4-4-4-4-4-4-4|
E|----------------------------------------------------------------|

G|----------------------------------------------------------------|
D|-------------------------------------------------------4-4-4-3-3|
A|---------------------------------4-4-4-4-4-4-4-4-1-1-1----------|
E|-2-2-2-2-2-2-2-2-2-2-2-2-2-2-2-2--------------------------------|

G|---------------------------------|
D|-1-1-1-1-1-1-1-1-1-1-1-1-3-3-4-4-|
A|---------------------------------|
E|---------------------------------|

G|----------------------------------------------------------------|
D|----------------------------------------------------------------|
A|-2-2-2-2-2-2-2-2-2-2-2-2-2-2-2-4-4-4-4-4-4-4-4-4-4-4-4-4-4-4-4--| 
E|----------------------------------------------------------------|

G|-------------------------------------------------------6-6-6-6--|
D|----------------------------------------------------------------|
A|-2-2-2-2-2-2-2-2-2-2-2-2-2-2-2-4-4-4-4-4-4-4-4-4-4-4-4----------| 
E|----------------------------------------------------------------|

G|----------------------------------------------------------------|
D|----------------------------------------------------------------|
A|-2-2-2-2-2-2-2-2-2-2-2-2-2-2-2-4-4-4-4-4-4-4-4-4-4-4-4-4-4-4-4--| 
E|----------------------------------------------------------------|

G|----------------|
D|----------------|
A|----------------|
E|-2--------------|

Order:

Verse X3
Chorus
Bridge/Verse
2nd Chorus
Bridge
Final Chorus/Outro  
Comments