Killers - Jenny Was A Friend Of Mine Chords & Tabs

 

Jenny Was A Friend Of Mine Chords & Tabs

Killers Chords & Tabs

Version: 2 Type: Tab 0 ratings
1 star 2 stars 3 stars 4 stars 5 stars
comments

Jenny Was A Friend Of Mine Tab

----------------------------------------------------------------------------
                 Jenny Was A Friend Of Mine - The Killers
----------------------------------------------------------------------------
Tabbed by: James Coster
Email: james.coster@gmail.com

Just the very basics to the beginning of this great song.  The album is awesome.
Take a listen, and rate if you think accurate!

Tuning: Standard (EADGBE)
[ Tab from: http://www.guitartabs.cc/tabs/k/killers/jenny_was_a_friend_of_mine_tab_ver_2.html ]
Intro:
e|-------------------------------------------------------------------------|
B|-------------------------------------------------------------------------|
G|-------------------------------------------------------------------------|
D|-------------------------------------------------------------------------|
A|-6-6-8-9--4-4-2-1--------------------------------------------------------|
E|-------------------------------------------------------------------------|


Chords over intro (Work out timing and strum patterns):
e|-------------------------------------------------------------------------|
B|-------------------------------------------------------------------------|
G|-8----6----4-------------------------------------------------------------|
D|-8----6----4-------------------------------------------------------------|
A|-6----4----2-------------------------------------------------------------|
E|-------------------------------------------------------------------------|

For more help or info, email me at james.coster@gmail.com, and i will reply within 24 hours.

--
James Coster

nb. submitted by me as a guest without logging on. Please use this one.
Comments