Killers - Jenny Was A Friend Of Mine Chords & Tabs

 

Jenny Was A Friend Of Mine Chords & Tabs

Killers Chords & Tabs

Version: 5 Type: Bass Tab 0 ratings
1 star 2 stars 3 stars 4 stars 5 stars
comments

Jenny Was A Friend Of Mine Bass Tab

Artist: The Killers
Song: Jenny Was A Friend Of Mine
Album: Hot Fuss (2004)
Tabbed by Adam

G|----11-x-11-11---|
D|-----------------|
A|-----------------|
D|-----------------|



Verse part 1
 
G|-------------8-10-11----------4-3----|
D|----------------------------------4--|
A|---6-6-6--------------4-4-4-4--------|
D|-------------------------------------|

G|-----------------------------------|
D|----------------------------4-3----|
A|-------------------------4------4--|
D|--9-9-9-8-9\----6-8-9-9------------| 


Verse part 2

G|-------------8-10-11----------4-3----|
D|----------------------------------4--|
A|---6\----------------4-4-4-4---------|
D|------1------------------------------|

G|-----------------------------------|
D|----------------------------4-3----|
A|-------------------------4------4--|
D|--9-9-9-8-9\----6-8-9-9------------| 


Verse part 3

G|-----------------------------4-3-----|
D|----------------------------------4--|
A|---6\----------------4-4-4-4---------|
D|------1-1-3-4------------------------|

G|-----------------------------------|
D|----------------------------4-3----|
A|-------------------------4------4--|
D|--9-9-9-8-9\----6-8-9-9------------| 

G|-------------8-10-11----------4-3----|
D|----------------------------------4--|
A|---6\----------------4-4-4-4---------|
D|------1------------------------------|

G|-----------------------------------|
D|----------------------------4-3----|
A|-------------------------4------4--|
D|--9-9-9-8-9\----6-8-9-9------------|

Verse part 4

G|-------------8-10-11----------4-3----|
D|----------------------------------4--|
A|---6\----------------4-4-4-4---------|
D|------1------------------------------|

G|------------------------------------------|
D|------------------------------------------|
A|------------------------------------------|
D|--9-9-9-8-9\----6-8-9-9-9-11-11-11--------|  


Chorus 1

G|----------------------------------------------------------|
D|----------------------------------------------------------|
A|-2-222-222-222-4-444-444-444-6-666-666-666-1-111-111-111--|
D|----------------------------------------------------------|

G|--------------------------------------------------------------------------------------------------------------|
D|------------------------------4-4-4-4--3-3-3-3----------------------------------------------------------------|
A|-2-222-222-222--4-444-444-444---------------------6-6-6-6--4-4-4-4----2-2-2-2-2-2-2-2--4-4-4-4/16-16-16-16----|
D|--------------------------------------------------------------------------------------------------------------|

Chorus 2

G|----------------------------------------------------------|
D|----------------------------------------------------------|
A|-2-222-222-222-4-444-444-444-6-666-666-666-1-111-111-111--|
D|----------------------------------------------------------|
[ Tab from: http://www.guitartabs.cc/tabs/k/killers/jenny_was_a_friend_of_mine_btab_ver_5.html ]
G|---------------------------------------------------------------------------------------------------|
D|-------------------------------4-4-4-4--3-3-3-3----------------------------------------------------|
A|-2-222-222-222--4-444-444-444----------------------6-6-6-6--4-4-4-4----2-2-2-2-2-2-2-2--4-4-4-4----|
D|---------------------------------------------------------------------------------------------------|

G|-----------------------------------------------------------------------------------------------------------------|
D|-------------------------------4-4-4-4--3-3-3-3------------------------------------------------------------------|
A|-2-222-222-222---4-444-444-444---------------------6-6-6-6--4-4-4-4----2-2-2-2-2-2-2-2--4-4-4-4/16-16-16\--------|
D|-----------------------------------------------------------------------------------------------------------1*----|

REST

G|----------------|
D|--16-16-16------|
A|-----------16*--|
D|----------------|



Fill

G|--11-11--|
D|---------|
A|---------|
D|---------|


Verse part 1
 
G|-------------8-10-11----------4-3----|
D|----------------------------------4--|
A|---6-6-6--------------4-4-4-4--------|
D|-------------------------------------|

G|-----------------------------------|
D|----------------------------4-3----|
A|-------------------------4------4--|
D|--9-9-9-8-9\----6-8-9-9------------| 


Verse part 2

G|-------------8-10-11----------4-3----|
D|----------------------------------4--|
A|---6\----------------4-4-4-4---------|
D|------1------------------------------|

G|-----------------------------------|
D|----------------------------4-3----|
A|-------------------------4------4--|
D|--9-9-9-8-9\----6-8-9-9------------| 


Verse part 3

G|-----------------------------4-3-----|
D|----------------------------------4--|
A|---6\----------------4-4-4-4---------|
D|------1-1-3-4------------------------|

G|-----------------------------------|
D|----------------------------4-3----|
A|-------------------------4------4--|
D|--9-9-9-8-9\----6-8-9-9------------| 

G|-------------8-10-11----------4-3----|
D|----------------------------------4--|
A|---6\----------------4-4-4-4---------|
D|------1------------------------------|

G|-----------------------------------|
D|----------------------------4-3----|
A|-------------------------4------4--|
D|--9-9-9-8-9\----6-8-9-9------------|

Verse part 4

G|-------------8-10-11----------4-3----|
D|----------------------------------4--|
A|---6\----------------4-4-4-4---------|
D|------1------------------------------|

G|------------------------------------------|
D|------------------------------------------|
A|------------------------------------------|
D|--9-9-9-8-9\----6-8-9-9-9-11-11-11--------|  

Verse part 5

G|-------------8-10-11----------4-3----|
D|----------------------------------4--|
A|---6\----------------4-4-4-4---------|
D|------1------------------------------|

G|---------------------------------------------|
D|---------------------------------------------|
A|---------------------------------------------|
D|--9-9-9-8-9\----6-8-9-9-9-11-11-11-13*-------|
Comments