Killers - Jenny Was A Friend Of Mine Chords & Tabs

 

Jenny Was A Friend Of Mine Chords & Tabs

Killers Chords & Tabs

Version: 3 Type: Bass Tab 0 ratings
1 star 2 stars 3 stars 4 stars 5 stars
comments

Jenny Was A Friend Of Mine Bass Tab

   
----------------------------------------------------------------------------
Jenny Was A Friend of Mine -- The Killers
----------------------------------------------------------------------------

Tabbed By : Spartan101
e-mail: www.zpro@sbcglobal.net

Tuning: standard
Intro/Verse (2nd part x4)
G|---------|----------------------------------------------------------------|
D|---------|----------------------------------------------------------------|
A|-10-9-10-|-------7-9-10--55-55--x-3-2---33-33-2-3----33-33-2-10-9-5-------|
E|---------|-00-00---------------------3------------33----------------------|
play this once
G|--------------------------------------------------------------------------|
D|--------------------------------------------------------------------------|
A|-77-77--7--7--------------x-3-2---33-33-2-3----33-33-2-10-9-5-------------|
E|--------------22-22--2--2-------3-----------33----------------------------|
then this
G|--------------------------------------------------------------------------|
D|--------------------------------------------------------------------------|
A|-------7-9-10--55-55--x-3-2---33-33-2-3-----33-2--3-----------------------|
E|-00-00----------------------3------------33-------------------------------|
[ Tab from: http://www.guitartabs.cc/tabs/k/killers/jenny_was_a_friend_of_mine_btab_ver_3.html ]
Prechorus (x1)
G|--------------------------------------------------------------------------|
D|--------------------------------------------------------------------------|
A|-3-3-3-3-3-3-3-3-5-5-5-5-5-5-5-5------------------------------------------|
E|--------------------------------------------------------------------------|

Chorus (x1)
G|--------------------------------------------------------------------------|
D|--------------------------------------------------------------------------|
A|--------------------------------------------------------------------------|
E|-10-10-10-10-9-9-9-9-7-7-7-7-5-5-5-5-3-3-3-3-3-3-3-3-5-5-5-5-5-5-5-5------|

Verse(the way I showed you)
Prechorus
Chorus
Prechorus
Chorus

Bridge
G|--------------------------------------------------------------------------|
D|--------------------------------------------------------------------------|
A|--7---strum the hell out of this note and play----------------------------|
E|-----the next thing as an intro into the verse----------------------------|

G|--------|
D|--------|
A|--9-10--|
E|--------|
play 2nd part of the verse(x2)then play the next things in the verse and end on A7

| /  slide up
| \  slide down
| h  hammer-on
| p  pull-off
| ~  vibrato
| +  harmonic
| x  Mute note
============================================================================
Comments