Killers - Jenny Was A Friend Of Mine Chords & Tabs

 

Jenny Was A Friend Of Mine Chords & Tabs

Killers Chords & Tabs

Version: 1 Type: Bass Tab 6 ratings
1 star 2 stars 3 stars 4 stars 5 stars
comments

Jenny Was A Friend Of Mine Bass Tab

   
Jenny Was A Friend Of Mine
Artist: The Killers
Album: Hot Fuss
Tab By: atawb 
Tuning (E A D G) ~=Let Ring /=Slide

Intro
G|--11-11-11-11--|
D|---------------|
A|---------------|
E|---------------|
[ Tab from: http://www.guitartabs.cc/tabs/k/killers/jenny_was_a_friend_of_mine_btab.html ]
Verse             
G|----------8-10-11-----------6-4-3-----------------------|
D|---------------------------------4-----------------4-3--|
A|--6-6-6-6-----------4-4-4-4-----------2-2-2-2~-2-2------|
E|--------------------------------------------------------|
                                  
Chorus                                                       Ending 1x 1                         
G|-----------------------------------|----------------------------------|
D|-----------------------------------|----------------------------------|
A|--2-2-2-2-2-2-2-2--4-4-4-4-4-4-4-4-|-6-6-6-6-6-6-6-6------------------|
E|-----------------------------------|-----------------6-6-6-6-6-6-6-6--|

                                                               Ending 2x 1
G|------------------------------------------------------------------------|
D|------------------------------------------------------------------------|
A|--9-9-9-9--8-8-8-8--6-6-6-6--4-4-4-4--2-2-2-2-2-2-2-2--4-4-4-4--/17-17--|
E|------------------------------------------------------------------------|

Interlude
G|--11-11--|
D|---------|
A|---------|  
E|---------|

Outro
G|-------|
D|-------|
A|-4/6~--|  
E|-------|

Intro 
Verse x6 
Chorus
Verse x6 
Chorus
Interlude 
Verse x4
Outro
Comments