Killers - Glamorous Indie Rock N Roll Chords & Tabs

 

Glamorous Indie Rock N Roll Chords & Tabs

Killers Chords & Tabs

Version: 1 Type: Tab 0 ratings
1 star 2 stars 3 stars 4 stars 5 stars
comments

Glamorous Indie Rock N Roll Tab

   
Killers - Indie Rock & Roll
Tabbed by LuckyJim (youdoittoyourself@hotmail.co.uk)


Intro/Verse:

E [-----------------------------------------------------------------]
B [-----------------------------------------------------------------]
G [-8-8-8-8-7-7-7-7-5-5-5-5-7-7-7-7-8-8-8-8-7-7-7-7-5-5-5-5-7-7-7-7-]
D [-8-8-8-8-8-8-8-8-8-8-8-8-8-8-8-8-5-5-5-5-5-5-5-5-5-5-5-5-5-5-5-5-]
A [-----------------------------------------------------------------]
E [-----------------------------------------------------------------]

E [-----------------------------------------------------------------]
B [-4-4-4-4-3-3-3-3-1-1-1-1-3-3-3-3-4-4-4-4-3-3-3-3-1-1-1-1-3-3-3-3-]
G [-1-1-1-1-1-1-1-1-1-1-1-1-1-1-1-1-3-3-3-3-3-3-3-3-3-3-3-3-3-3-3-3-]
D [-1-1-1-1-1-1-1-1-1-1-1-1-1-1-1-1-3-3-3-3-3-3-3-3-3-3-3-3-3-3-3-3-]
A [-----------------------------------------------------------------]
E [-----------------------------------------------------------------]

above riff is play by quickly damping the first note
afer fretting it and letting every second note ring out

Chorus

E [----------------------------------------]
B [----------------------------------------]
G [---8----------5---------------------3---]
D [---8----------5----------3----------3---]
A [---6----------3----------3----------1---]
E [-------------------------1--------------]


Bridge:

E [---------------------------------------------------]
B [---------------------------------------------------]
G [-------------------------5-5-5-5-5---3-3-3-3-5\3/5-]
D [-3-3-3-3-3---6-6-6-6-6---5-5-5-5-5---3-3-3-3-5\3/5-]
A [-3-3-3-3-3---6-6-6-6-6---3-3-3-3-3---1-1-1-1-3\1/3-]
E [-1-1-1-1-1---4-4-4-4-4-----------------------------]
[ Tab from: http://www.guitartabs.cc/tabs/k/killers/glamorous_indie_rock_n_roll_tab.html ]
E [---------------------------------------------------]
B [---------------------------------------------------]
G [-------------------------5-5-5-5-5---3-3-3-3-x-----]
D [-3-3-3-3-3---6-6-6-6-6---5-5-5-5-5---3-3-3-3-x-3b4-]
A [-3-3-3-3-3---6-6-6-6-6---3-3-3-3-3---1-1-1-1-x-----]
E [-1-1-1-1-1---4-4-4-4-4-----------------------------]

E [-----------------------------------------------------------------]
B [-----------------------------------------------------------------]
G [---------------------------------5-5-5-5-5-5-5-5-3-3-3-3-3-3-3-3-]
D [-3-3-3-3-3-3-3-3-6-6-6-6-6-6-6-6-5-5-5-5-5-5-5-5-3-3-3-3-3-3-3-3-]
A [-3-3-3-3-3-3-3-3-6-6-6-6-6-6-6-6-3-3-3-3-3-3-3-3-1-1-1-1-1-1-1-1-]
E [-1-1-1-1-1-1-1-1-4-4-4-4-4-4-4-4---------------------------------]

E [-----------------------------------------------------------------]
B [-----------------------------------------------------------------]
G [-----------------------------------------------------------------]
D [-6-6-6-6-6-6-6-6-6-6-6-6-6-6-6-6-8-8-8-8-8-8-8-8-8-8-8-8-8-8-8-8-]
A [-6-6-6-6-6-6-6-6-6-6-6-6-6-6-6-6-8-8-8-8-8-8-8-8-8-8-8-8-8-8-8-8-]
E [-4-4-4-4-4-4-4-4-4-4-4-4-4-4-4-4-6-6-6-6-6-6-6-6-6-6-6-6-6-6-6-6-]


fill 1 - play over Bb (688xxx) chord above)

E [-------------------------------------------]
B [---------------------------8-9-8-9-10---11-]
G [----------7----7-8-10-8-10-----------------]
D [-8-7-8-10---10-----------------------------]
A [-------------------------------------------]
E [-------------------------------------------]


after above riff play:

E [---------4-----4-----2---]
B [---4-----4-----5-----2---]
G [---4-----4-----6-----3---]
D [---4-----6-----6-----4---]
A [---2-----6-----4-----4---]
E [---------4-----------2---]


play verse once more then repeat chorus


Outro:

E [-------------------------------------]
B [-----------------------------------8-]
G [-8-8-8-8-7-7-7-7-5-5-5-5-7-7-7-7---8-]
D [-8-8-8-8-8-8-8-8-8-8-8-8-8-8-8-8---8-]
A [-----------------------------------6-]
E [-------------------------------------]
Comments