Killers - Change Your Mind Chords & Tabs

 

Change Your Mind Chords & Tabs

Killers Chords & Tabs

Version: 2 Type: Tab 0 ratings
1 star 2 stars 3 stars 4 stars 5 stars
comments

Change Your Mind Tab

The Killers
Change Your Mind
Hot Fuss

Tabbed by: seandabomb

Intro:
E----------------------------|
B-6--6-5-6-5--6--5--6--5-6-5-|
G-5--5-5-5-5--5--5--5--5-5-5-|
D----------------------------|
A----------------------------|
E----------------------------|
[ Tab from: http://www.guitartabs.cc/tabs/k/killers/change_your_mind_tab_ver_2.html ]
Verse:
E-------15----15-17-15-----------------20-15-18-17--------------------|
B-15-18----18----------18-17--------18-------------18~---17---18------|
G----------------------------17-17~--------------------------------17-|
D---------------------------------------------------------------------|
A---------------------------------------------------------------------|
E---------------------------------------------------------------------|

Bridge:
E-------------------------------------|
B-15~-----13~-------------13----------|
G-----14~-----15-15-14-12----12-15-14-|
D-------------------------------------|
A-------------------------------------|
E-------------------------------------|
Comments