Killers - Change Your Mind Chords & Tabs

 

Change Your Mind Chords & Tabs

Killers Chords & Tabs

Version: 2 Type: Bass Tab 0 ratings
1 star 2 stars 3 stars 4 stars 5 stars
comments

Change Your Mind Bass Tab

   
-------------------------------------------------------------------------------
		      CHANGE YOUR MIND - The Killers
-------------------------------------------------------------------------------

Tabbed By : Spartan101
e-mail: zpro@sbcglobal.net

Tuning: standard
~note~ only do the 0/8 at the very beginning. When you repeat, just play the 8s and skip
the 0 for the rest of the song.

Intro/Verse(x3 when u repeat,use the / at the end to slide up to 8 and rep.)
G|------------------------------------------------------------------------|
D|------------------------------------------------------------------------|
A|-0/88-888-888-888-888-888-888-888-8\55-555-5\11-111-1/33-333-333-333-3/-|
E|------------------------------------------------------------------------|

"So if the answer..." this will go right into the verse again
G|----------------------------------------------------------------------|
D|----------------------------------------------------------------------|
A|-1111111111111111-3333333333333333/88-888-888-888-888-888-888-888-888-|
E|----------------------------------------------------------------------|

Verse (x2)
[ Tab from: http://www.guitartabs.cc/tabs/k/killers/change_your_mind_btab_ver_2.html ]
"So if I have a chance..."
G|--------------------------------------------------------------------|
D|--------------------------------------------------------------------|
A|-1111111111111111-3333333333333333/88-888-888-888-8-----------------|
E|---------------------------------------------------11-111-111-111-1-|

Bridge (play lightly)   ~x2~
G|------------------------------------------------------------------------|
D|------------------------------------------------------------------------|
A|-0/55-555-5/88-888-8\55-555-5/88-888-8\55-555-5/88-888-8\77777777777777-|
E|------------------------------------------------------------------------|

"And if the answer..."
G|-------------------------------------------------------------------|
D|-------------------------------------------------------------------|
A|-1111111111111111-3333333333333333/8~~~8\-----8(verse starts here)-|
E|-----------------------------------------1~~~/---------------------|

Verse (x2)

Outro
G|------------------------------------------------------------------------|
D|------------------------------------------------------------------------|
A|-1111111111111111-3333333333333333-1111111111111111-3333333333333333/88-|
E|------------------------------------------------------------------------|
continued
G|-----------------------------------|
D|-------------------------------3~~-|
A|-888-888-888-8\--------------------|
E|---------------11-111-111-111-1----|


| /  slide up
| \  slide down
| ~  vibrato
===============================================================================
Comments