Killers - Andy Youre A Star Chords & Tabs

 

Andy Youre A Star Chords & Tabs

Killers Chords & Tabs

Version: 2 Type: Tab 0 ratings
1 star 2 stars 3 stars 4 stars 5 stars
comments

Andy Youre A Star Tab

Tuning: EADGBE
Submitted by Patrick akak Coolcatch1489



Q=80
    
Gtr I
                                                                   5x
||--3--3--1--1-3--|-3-1-1-3-3-1-1-3--|-3--3--3-3--3-|-1-1-3-3-1-1--||
||o-3--3--3--3-3--|-3-3-3-3-3-3-3-3--|-3--1--1-3--3-|-3-3-3-3-3-3-o||
||--2--2--2--2-2--|-2-2-2-2-2-2-2-0--|-0--0--2-2--2-|-2-2-2-2-2-2--||
||--0--0--0--0-0--|-0-0-0-0-0-0-0-2--|-2--2--2-0--0-|-0-0-0-0-0-0--||
||o-x--x-------x--|-x-----x-x-----x--|-x--x--x-x--x-|-------------o||
||----------------|------------------|--------------|--------------||

Chorus
[ Tab from: http://www.guitartabs.cc/tabs/k/killers/andy_youre_a_star_tab_ver_2.html ]
|---------------|----------------|---------------|
|---------------|----------------|---------------|
|-1--1-1--------|----------------|-1--1-1--------|
|-2--2-2-4--4-4-|-6-6-6-6--6-6---|-2--2-2-4--4-4-|
|-2--2-2-4--4-4-|-6-6-6-6--6-6---|-2--2-2-4--4-4-|
|-0--0-0-2--2-2-|-4-4-4-4--4-4-0-|-0--0-0-2--2-2-|


|----------------|---------------|----------------|
|----------------|---------------|----------------|
|----------------|-1--1-1--------|----------------|
|-6-6-6-6--6-6---|-2--2-2-7--7-7-|-6-6-6-6--6-6---|
|-6-6-6-6--6-6---|-2--2-2-7--7-7-|-6-6-6-6--6-6---|
|-4-4-4-4--4-4-0-|-0--0-0-5--5-5-|-4-4-4-4--4-4---|
Comments