Killers - Andy Youre A Star Chords & Tabs

 

Andy Youre A Star Chords & Tabs

Killers Chords & Tabs

Version: 1 Type: Tab 0 ratings
1 star 2 stars 3 stars 4 stars 5 stars
comments

Andy Youre A Star Tab

This is such koooooooooool song!! :D i absolutly luv!this!song! and this album!--the
album is f****in AMAZING!! hope u like the tab!x!
btw...ne probs e-mail in_your_world@hotmail.co.uk or rhcp_3454@hotmail.com but
inyourwolds beta cos thats the 1 i use most


--3-3-1-1-3-3-1-1-3-3-1-1--3-3-3-3--3-3-1-1-3-3-|
--3-3-3-3-3-3-3-3-3-3-3-3--3-3-1-1--3-3-3-3-3-3-|
--2-2-2-2-2-2-2-2-2-2-2-2--0-0-0-2--2-2-2-2-2-2-|
--0-0-0-0-0-0-0-0-0-0-0-0--2-2-2-2--0-0-0-0-0-0-|
--x-x-----x-x-----x-x------x-x-x-x--x-x---------|
------------------------------------------------|
 'get down'.... carries on for a bit
[ Tab from: http://www.guitartabs.cc/tabs/k/killers/andy_youre_a_star_tab.html ]
                         
play slowwly
--------------------|        ------|
--------------------|  after ------|
--8------3-----10---|   that --11--|
--8------3-----10---|   3X,  --11--|
--6------1------8---|   this ---9--|
--------------------|        ------|

'with the pain that you gain from loovee'
-------------------------------------------------|
-------------------------------------------------|
-------------------------------------------------|
-------6666666666666666---5555555555555555555555-|
-------6666666666666666---6666666666666666666666-|
-------4444444444444444---3333333333333333333333-|

'coz andy your a star.....'
strum all of it downwards

for that bit it changes after a while.

sadly no e-amil address wiv it(sowwwy)
Comments