Killers - All These Things That Ive Done Chords & Tabs

 

All These Things That Ive Done Chords & Tabs

Killers Chords & Tabs

Version: 6 Type: Tab 0 ratings
1 star 2 stars 3 stars 4 stars 5 stars
comments

All These Things That Ive Done Tab

   
Hello everyone, this is a very complete way to play the song with spanish or classic
this is, without going further than 12th fret (11th, actually). Hope you have fun.

KILLERS  ALL THESE THINGS THAT I'VE DONE

F#:  	244322
B:   	x24442
F#/F:	1443xx
D#m: 	x68876
F#5: 	244xxx
F#6: 	264xxx
F#5:	244xxx
B5:	x244xx
C#:	x4666x

INTRO
  F#    F#    F#    F#    F#     F#     B      F# F#/F        D#m
e|2----|2----|2----|2----|2--2--|2--2--|2--2--|2-------------|6--|
B|-----|-----|-----|-----|2-----|2-----|4-----|2-------------|7--|
G|-----|-----|-----|-----|3-----|3-----|4-----|3--3--3-4-6-8-|8--|
D|-----|-----|-----|-----|4-----|4-----|4-----|4--4----------|8--|
A|-----|-----|-----|-----|4-----|4-----|2-----|4--4----------|6--|
E|-----|-----|-----|-----|2-----|2-----|------|2--1----------|---|
         B      F#
--------|2--2--|2----|
--------|4--2--|2----|
--------|4-----|3----|
---6----|4-----|4----|
-9---9--|2-----|4----|
--------|------|2----|

INTRO LYRICS:
When there's nowhere else to run
Is there room for one more son
One more son
If you can hold on
If you can hold on, hold on

RIFF
  F#          F#         F#        F#
e|-----------|----------|---------|---------|
B|2--2---2---|2--2---2--|---------|---------|
G|-----3-----|-----3----|3---3--3-|3--3--3--|
D|--------4--|--------4-|---4--4-4|--4--4--4|
A|-----------|----------|---------|---------|
E|2----------|2---------|2--------|2--------|
  B           B          F#        F#
e|-----------|----------|---------|---------|
B|2--2---2---|2--2---2--|---------|---------|
G|-----3-----|-----3----|3---3--3-|3--3--3--|
D|--------4--|--------4-|---4--4-4|--4--4--4|
A|2----------|2---------|---------|---------|
E|-----------|----------|2--------|2--------|

VERSE:
(F#5)I wanna stand u(F#6)p, (F#5)I wanna let g(F#6)o
(F#5)You know, you kno(F#6)w - n(F#5)o you don't, you do(F#6)n't
(B)I wanna shine on in the hearts of me(F#)n
(F#)I want a meaning from the back of my broken hand
(F#5)Another head a(F#6)ches, (F#5)another heart br(F#6)eaks
(F#5)I am so much o(F#6)lder (F#5)than I can ta(F#6)ke
(B)And my affection, well it comes and go(F#)es
(F#)I need direction to perfection, no no no no
[ Tab from: http://www.guitartabs.cc/tabs/k/killers/all_these_things_that_ive_done_tab_ver_6.html ]
CHORUS:
(F#)
Help me out
Yeah, you know you got to help me out
Yeah, oh don't you put me on the bl(B)ackburner
You know you got to help me o(F#)ut yeah

VERSE:
And when there's nowhere else to run
Is there room for one more son
These changes ain't changing me
The cold-hearted boy I used to be

CHORUS:
(F#)
Yeah, you know you got to help me out
Yeah, oh don't you put me on the bl(B)ackburner
You know you got to help me o(F#)ut
You're gonna bring yourself d(D#m)own
Yeah, you're gonna bring yourself d(B)own
Yeah, you're gonna bring yourself d(F#)own

BRDIGE:
(F#5)I got soul, but I'm not a soldier	|
I got soul, but I'm not a soldier		|
(B5)I got soul, but I'm not a soldier		|x2
I got soul, but I'm not a soldier		|
(D#m)I got soul, but I'm not a soldier
(B)I got soul, but I'm not a soldi(F#)eeeeeeer	yeeieaah yiiioiihhhh uhhhhh 
wooooowwwww yaaaaaahhhh!!!

CHORUS:
(F#)
Yeah, you know you got to help me out
Yeah, oh don't you put me on the bl(B)ackburner
You know you got to help me o(F#)ut
You're gonna bring yourself down
You're gonna bring yourself down
Yeah, oh don't you put me on the bl(B)ackburner
Yeah, you're gonna bring yourself d(F#)own
Yeah, you're gonna bring yourself d(D#m)own

Over and o(B)ut, last call for sin
While everyone's lost, the battle is w(C#)on
With all these things that I've done
  F#          F#         F#        F#
e|-----------|----------|---------|---------|
B|2--2---2---|2--2---2--|---------|---------|
G|-----3-----|-----3----|3---3--3-|3--3--3--|
D|--------4--|--------4-|---4--4-4|--4--4--4|
A|-----------|----------|---------|---------|
E|2----------|2---------|2--------|2--------|
                                All these things that I've done

  D#m         D#m        F#             F#
e|9--9-6-9---|9--9-6-9--|--------------|--------------|
B|---------7-|--------7-|11---11---11--|11---11---11--|
G|-----------|----------|---11---11--11|---11---11--11|
D|-----------|----------|--------------|--------------|
A|6----------|6---------|9-------------|9-------------|
E|-----------|----------|--------------|--------------|

  F#          F#         C#          C#
e|-----------|----------|9--9-6-9---|9--9-6-9---|
B|2--2---2---|2--2---2--|---------6-|---------6-|
G|-----3-----|-----3----|-----------|-----------|
D|--------4--|--------4-|-----------|-----------|
A|-----------|----------|4----------|4----------|
E|2----------|2---------|-----------|-----------|
If you can hold on       If you can hold on

OUTRO:
  F#
e|------------|
B|------------|
G|3----3---3--|x5
D|---4---4--4-|
A|------------|
E|2-----------|
Comments