Killers - All These Things That Ive Done Chords & Tabs

 

All These Things That Ive Done Chords & Tabs

Killers Chords & Tabs

Version: 5 Type: Tab 0 ratings
1 star 2 stars 3 stars 4 stars 5 stars
comments

All These Things That Ive Done Tab

   
  

  Hey guys. There's about a million ways to tab out 'All these Things That I've Done',
but theres only one correct way. And to me...this is the correct way. This is my first
tab so its not 100% correct...but it's REALLY close! It also includes lyrics at the bottom. Enjoy...



e--------------|------------------|
B--------------|------------------| x2
G--------------|------------------|
D-11-11-11-11--|-----11-----------|
A--------------|--13--------------|
E--------------|--------14--------|

 *I suggest alternate picking!!! 

e--------------------------------------| 
B--------------------------------------|
G--------------------------------------|
D--------------------------------------|
A-13----13----13----13----13----13-----|
E----14----14----14----14----14----14--|
    
                                    *let ring

e--------------|------------------|
B--------------|------------------| x2
G--------------|------------------|
D-11-11-11-11--|-----11-----------|
A--------------|--13--------------|
E--------------|--------14--------|

 *I suggest alternate picking!!! 

e--------------------------------------| 
B--------------------------------------|
G--------------------------------------|
D--------------------------------------|
A-13----13----13----13----13----13-----|
E----14----14----14----14----14----14--|
    
                                    *let ring
                                 
                                x2
e---------------------------------|---------------------------------|
B---------------------------------|---------------------------------|
G---------------------------------|-4-4-4-4-4-4-4-4-4-4-4-4-4-4-4-4-|
D-4-4-4-4-4-4-4-4-4-4-4-4-4-4-4-4-|-4-4-4-4-4-4-4-4-4-4-4-4-4-4-4-4-|
A-4-4-4-4-4-4-4-4-4-4-4-4-4-4-4-4-|-2-2-2-2-2-2-2-2-2-2-2-2-2-2-2-2-|
E-2-2-2-2-2-2-2-2-2-2-2-2-2-2-2-2-|---------------------------------|


e-----------------------------------|
B-----------------------------------|
G-----------------------------------|
D-4-4-4-4-4-4-4-4-4-4-4-4-4-4-4-4-4-|
A-4-4-4-4-4-4-4-4-4-4-4-4-4-4-4-4-4-|
E-2-2-2-2-2-2-2-2-2-2-2-2-2-2-2-2-2-|

                                    *let ring

e--------------|------------------|
B--------------|------------------| x2
G--------------|------------------|
D-11-11-11-11--|-----11-----------|
A--------------|--13--------------|
E--------------|--------14--------|

 *I suggest alternate picking!!! 

e--------------------------------------| 
B--------------------------------------|
G--------------------------------------|
D--------------------------------------|
A-13----13----13----13----13----13-----|
E----14----14----14----14----14----14--|
    
                                    *let ring


                                x2
e---------------------------------|---------------------------------|
B---------------------------------|---------------------------------|
G---------------------------------|-4-4-4-4-4-4-4-4-4-4-4-4-4-4-4-4-|
D-4-4-4-4-4-4-4-4-4-4-4-4-4-4-4-4-|-4-4-4-4-4-4-4-4-4-4-4-4-4-4-4-4-|
A-4-4-4-4-4-4-4-4-4-4-4-4-4-4-4-4-|-2-2-2-2-2-2-2-2-2-2-2-2-2-2-2-2-|
E-2-2-2-2-2-2-2-2-2-2-2-2-2-2-2-2-|---------------------------------|


e-----------------------------------|
B-----------------------------------|
G-----------------------------------|
D-4-4-4-4-4-4-4-4-4-4-4-4-4-4-4-4-4-|
A-4-4-4-4-4-4-4-4-4-4-4-4-4-4-4-4-4-|
E-2-2-2-2-2-2-2-2-2-2-2-2-2-2-2-2-2-|


e---------------------------------|
B---------------------------------|
G-8-8-8-8-8-8-8-8-8-8-8-8-8-8-8-8-|
D-8-8-8-8-8-8-8-8-8-8-8-8-8-8-8-8-|
A-6-6-6-6-6-6-6-6-6-6-6-6-6-6-6-6-|
E---------------------------------| 

e---------------------------------|
B---------------------------------|
G-4-4-4-4-4-4-4-4-4-4-4-4-4-4-4-4-|
D-4-4-4-4-4-4-4-4-4-4-4-4-4-4-4-4-|
A-2-2-2-2-2-2-2-2-2-2-2-2-2-2-2-2-|
E---------------------------------|

e-----------------------------------|
B-----------------------------------|
G-----------------------------------|
D-4-4-4-4-4-4-4-4-4-4-4-4-4-4-4-4-4-|
A-4-4-4-4-4-4-4-4-4-4-4-4-4-4-4-4-4-|
E-2-2-2-2-2-2-2-2-2-2-2-2-2-2-2-2-2-|
 .. .. .. .. .. .. .. .. .. .. .. .. 
                             
e---------------------------------|
B---------------------------------|
G-4-4-4-4-4-4-4-4-4-4-4-4-4-4-4-4-|
D-4-4-4-4-4-4-4-4-4-4-4-4-4-4-4-4-|
A-2-2-2-2-2-2-2-2-2-2-2-2-2-2-2-2-|
E---------------------------------|
 .. .. .. .. .. .. .. .. .. .. .. 
[ Tab from: http://www.guitartabs.cc/tabs/k/killers/all_these_things_that_ive_done_tab_ver_5.html ]
e---------------------------------|
B---------------------------------|
G-8-8-8-8-8-8-8-8-8-8-8-8-8-8-8-8-|
D-8-8-8-8-8-8-8-8-8-8-8-8-8-8-8-8-|
A-6-6-6-6-6-6-6-6-6-6-6-6-6-6-6-6-|
E---------------------------------| 
 .. .. .. .. .. .. .. .. .. .. .. 

e---------------------------------|
B---------------------------------|
G-4-4-4-4-4-4-4-4-4-4-4-4-4-4-4-4-|
D-4-4-4-4-4-4-4-4-4-4-4-4-4-4-4-4-|
A-2-2-2-2-2-2-2-2-2-2-2-2-2-2-2-2-|
E---------------------------------|
 .. .. .. .. .. .. .. .. .. .. .. 

e-----------------------------------| x4
B-----------------------------------|
G-----------------------------------|
D-4-4-4-4-4-4-4-4-4-4-4-4-4-4-4-4-4-|
A-4-4-4-4-4-4-4-4-4-4-4-4-4-4-4-4-4-|
E-2-2-2-2-2-2-2-2-2-2-2-2-2-2-2-2-2-|
 .. .. .. .. .. .. .. .. .. .. .. .. 

e-----------------------------------| x2
B-----------------------------------|
G-----------------------------------|
D-4-4-4-4-4-4-4-4-4-4-4-4-4-4-4-4-4-|
A-4-4-4-4-4-4-4-4-4-4-4-4-4-4-4-4-4-|
E-2-2-2-2-2-2-2-2-2-2-2-2-2-2-2-2-2-|

e---------------------------------|
B---------------------------------|
G-4-4-4-4-4-4-4-4-4-4-4-4-4-4-4-4-|
D-4-4-4-4-4-4-4-4-4-4-4-4-4-4-4-4-|
A-2-2-2-2-2-2-2-2-2-2-2-2-2-2-2-2-|
E---------------------------------|

e-----------------------------------| x2
B-----------------------------------|
G-----------------------------------|
D-4-4-4-4-4-4-4-4-4-4-4-4-4-4-4-4-4-|
A-4-4-4-4-4-4-4-4-4-4-4-4-4-4-4-4-4-|
E-2-2-2-2-2-2-2-2-2-2-2-2-2-2-2-2-2-|

e-----------------------------------| 
B-----------------------------------|
G-----------------------------------|
D-4-4-4-4-4-4-4-4-4-4-4-4-4-4-4-4-4-|
A-4-4-4-4-4-4-4-4-4-4-4-4-4-4-4-4-4-|
E-2-2-2-2-2-2-2-2-2-2-2-2-2-2-2-2-2-|


e---------------------------------|
B---------------------------------|
G-8-8-8-8-8-8-8-8-8-8-8-8-8-8-8-8-|
D-8-8-8-8-8-8-8-8-8-8-8-8-8-8-8-8-|
A-6-6-6-6-6-6-6-6-6-6-6-6-6-6-6-6-|
E---------------------------------| 

e---------------------------------|
B---------------------------------|
G-4-4-4-4-4-4-4-4-4-4-4-4-4-4-4-4-|
D-4-4-4-4-4-4-4-4-4-4-4-4-4-4-4-4-|
A-2-2-2-2-2-2-2-2-2-2-2-2-2-2-2-2-|
E---------------------------------|

e-----------------------------------|
B-----------------------------------|
G-----------------------------------|
D-4-4-4-4-4-4-4-4-4-4-4-4-4-4-4-4-4-|
A-4-4-4-4-4-4-4-4-4-4-4-4-4-4-4-4-4-|
E-2-2-2-2-2-2-2-2-2-2-2-2-2-2-2-2-2-|
                                   
                                *let ring

e--------------|------------------|
B--------------|------------------| x2
G--------------|------------------|
D-11-11-11-11--|-----11-----------|
A--------------|--13--------------|
E--------------|--------14--------|

 *I suggest alternate picking!!! 

e--------------------------------------| 
B--------------------------------------|
G--------------------------------------|
D--------------------------------------|
A-13----13----13----13----13----13-----|
E----14----14----14----14----14----14--|
    
e--------------|------------------|
B--------------|------------------| x2
G--------------|------------------|
D-11-11-11-11--|-----11-----------|
A--------------|--13--------------|
E--------------|--------14--------|

 *I suggest alternate picking!!! 

e--------------------------------------| 
B--------------------------------------|
G--------------------------------------|
D--------------------------------------|
A-13----13----13----13----13----13-----|
E----14----14----14----14----14----14--|
    
e--------------|------------------|
B--------------|------------------| x2
G--------------|------------------|
D-11-11-11-11--|-----11-----------|
A--------------|--13--------------|
E--------------|--------14--------|

 *I suggest alternate picking!!! 

e--------------------------------------| 
B--------------------------------------|
G--------------------------------------|
D--------------------------------------|
A-13----13----13----13----13----13-----|
E----14----14----14----14----14----14--|
    
e--------------|------------------|
B--------------|------------------| x2
G--------------|------------------|
D-11-11-11-11--|-----11-----------|
A--------------|--13--------------|
E--------------|--------14--------|

 *I suggest alternate picking!!! 

e--------------------------------------| 
B--------------------------------------|
G--------------------------------------|
D--------------------------------------|
A-13----13----13----13----13----13-----|
E----14----14----14----14----14----14--|
Comments