Killers - All These Things That Ive Done Chords & Tabs

 

All These Things That Ive Done Chords & Tabs

Killers Chords & Tabs

Version: 4 Type: Tab 0 ratings
1 star 2 stars 3 stars 4 stars 5 stars
comments

All These Things That Ive Done Tab

   
-------------------------------------------------------------------------------
			     ALL THESE THINGS THAT I'VE DONE - The Killers
-------------------------------------------------------------------------------
Tabbed by: spruse_moose
Email: spruse_moose_@hotmail.com

Tuning: Flat (Eb Ab Db Gb Bb Eb)

I've seen them play this live and David uses open chords. I'm pretty sure it's
accurate, but any comments, feel free
to let me know. Enjoy.

Verse 1:
When there's nowhere else to run
Is there room for one more son
One more son
If you can hold on
If you can hold on, hold on

(When played live throw in a single strummed G chord at the final "on"-just adds
a little depth)


eb|---------------------------------------------------------------------------|
Bb|---------------------------------------------------------------------------|
Gb|----7-7-4-7-0-0--7-7-4-7-0-0-4-0-4-0-4-0-4-0-4-0-4-0r----------------------|
Db|---------------------------------------------------------------------------|
Ab|---------------------------------------------------------------------------|
Eb|---------------------------------------------------------------------------|

Play through until the verse.

Verse 2:
I wanna stand up, I wanna let go
You know, you know - no you don't, you don't
C				G
I wanna shine on in the hearts of men
I want a meaning from the back of my broken hand 

Play the above tab through for the rest of the verse. The only change is in the
final line. I'm pretty sure it's just a muted G power chord (below).

Another head aches, another heart breaks
I am so much older than I can take
And my affection, well it comes and goes
I need direction to perfection, no no no no

eb|---------------------------------------------------------------------------|
Bb|---------------------------------------------------------------------------|
Gb|---------------------------------------------------------------------------|
Db|---------------------5---5---5--5--5--5--5--5------------------------------|
Ab|---------------------5---5---5--5--5--5--5--5------------------------------|
Eb|---------------------3---3---3--3--3--3--3--3------------------------------|

Chorus:
	G
Help me out
Yeah, you know you got to help me out
				C
Yeah, oh don't you put me on the back burner
			   G
You know you got to help me out

Verse 3:
				    G
 And when there's nowhere else to run
 Is there room for one more son
 These changes       ain't changing me, The cold-hearted boy I used to be 
eb|---------------------------------------------------------------------------|
Bb|---------------------------------------------------------------------------|
Gb|-----7-7-4-7-0-0--7-7-4-7-0-0---------4-0-4-0-4-0-4-0-4-0-4-0--------------|
Db|---------------------------------------------------------------------------|
Ab|---------------------------------------------------------------------------|
Eb|---------------------------------------------------------------------------|

Chorus:
G
Yeah, you know you got to help me out
				C
Yeah, oh don't you put me on the back burner
			   G
You know you got to help me out, yeah.
			   Em
You're gonna bring yourself down
				C
Yeah, you're gonna bring yourself down
Yeah, you're gonna bring yourself down 

Bridge:

eb|---------------------------------------------------------------------------|
Bb|---------------------------------------------------------------------------|
Gb|---------------------------------------------------------------------------|
Db|-5-5-5-5-5-5-5-5-5-5-5-5-5-5-5-5-------------------------------------------|
Ab|-5-5-5-5-5-5-5-5-5-5-5-5-5-5-5-5-------------------------------------------|
Eb|-3-3-3-3-3-3-3-3-3-3-3-3-3-3-3-3-------------------------------------------|
   <---------palm mute------------>

eb|---------------------------------------------------------------------------|
Bb|---------------------------------------------------------------------------|
Gb|---------------------------------------------------------------------------|
Db|-5-5-5-5-5-5-5-5-5-5-5-5-5-5-5-5-------------------------------------------|
Ab|-5-5-5-5-5-5-5-5-5-5-5-5-5-5-5-5-------------------------------------------|
Eb|-3-3-3-3-3-3-3-3-3-3-3-3-3-3-3-3-------------------------------------------|
   <---------palm mute------------>
       I got soul, but I'm not a soldier
       I got soul, but I'm not a soldier

eb|---------------------------------------------------------------------------|
Bb|---------------------------------------------------------------------------|
Gb|-5-5-5-5-5-5-5-5-5-5-5-5-5-5-5-5-------------------------------------------|
Db|-5-5-5-5-5-5-5-5-5-5-5-5-5-5-5-5-------------------------------------------|
Ab|-3-3-3-3-3-3-3-3-3-3-3-3-3-3-3-3-------------------------------------------|
Eb|---------------------------------------------------------------------------|
   <---------palm mute------------>
    I got soul, but I'm not a soldier
[ Tab from: http://www.guitartabs.cc/tabs/k/killers/all_these_things_that_ive_done_tab_ver_4.html ]
eb|---------------------------------------------------------------------------|
Bb|---------------------------------------------------------------------------|
Gb|---------------------------------------------------------------------------|
Db|-5-5-5-5-5-5-5-5-5-5-5-5-5-5-5-5-------------------------------------------|
Ab|-5-5-5-5-5-5-5-5-5-5-5-5-5-5-5-5-------------------------------------------|
Eb|-3-3-3-3-3-3-3-3-3-3-3-3-3-3-3-3-------------------------------------------|
   <---------palm mute------------>
       I got soul, but I'm not a soldier

eb|-----------------------------------------------------------------------------|
Bb|-----------------------------------------------------------------------------|
Gb|-----------------------------------------------------------------------------|
Db|-5-5-5-5-5-5-5-5-5-5-5-5-5-5-5-5---------------------------------------------|	x2
Ab|-5-5-5-5-5-5-5-5-5-5-5-5-5-5-5-5---------------------------------------------|
Eb|-3-3-3-3-3-3-3-3-3-3-3-3-3-3-3-3---------------------------------------------|
      x x x x   x   x x x x x x x x
   I got soul, but I'm not a soldier
   I got soul, but I'm not a soldier

eb|-----------------------------------------------------------------------------|
Bb|-----------------------------------------------------------------------------|
Gb|-5-5-5-5-5-5-5-5-5-5-5-5-5-5-5-5---------------------------------------------|
Db|-5-5-5-5-5-5-5-5-5-5-5-5-5-5-5-5---------------------------------------------|
Ab|-3-3-3-3-3-3-3-3-3-3-3-3-3-3-3-3---------------------------------------------|
Eb|-----------------------------------------------------------------------------|
      x x x x   x   x x x x x x x x
   I got soul, but I'm not a soldier

eb|-----------------------------------------------------------------------------|
Bb|-----------------------------------------------------------------------------|
Gb|-----------------------------------------------------------------------------|
Db|-5-5-5-5-5-5-5-5-5-5-5-5-5-5-5-5---------------------------------------------|	
Ab|-5-5-5-5-5-5-5-5-5-5-5-5-5-5-5-5---------------------------------------------|
Eb|-3-3-3-3-3-3-3-3-3-3-3-3-3-3-3-3---------------------------------------------|
      x x x x   x   x x x x x x x x
   I got soul, but I'm not a soldier

Em
I got soul, but I'm not a soldier
C				G
I got soul, but I'm not a soldier

Yeah, you know you got to help me out
				C
Yeah, oh don't you put me on the back burner
			   G
You know you got to help me out, yeah.
You're gonna bring yourself down, yeah.
You're gonna bring yourself down
				C
Yeah, oh don't you put me on the back burner
			    G
You're gonna bring yourself down 
				  Em
Yeah, you're gonna bring yourself down


Outro:
	 Am		   C
Over and in, last call for sin
				     D
While everyone's lost, the battle is won
With all these things that I've done

eb|---------------------------------------------------------------------------|
Bb|---------------------------------------------------------------------------|
Gb|----7-7-4-7-0-0--7-7-4-7-0-0-4-0-4-0-4-0-4-0-4-0-4-0-----------------------|
Db|---------------------------------------------------------------------------|
Ab|---------------------------------------------------------------------------|
Eb|---------------------------------------------------------------------------|

All these things that I've done

eb|-10-10-7-10------10-10-7-10------7--7--7--7--7--7--------------------------|
Bb|------------8-8-------------8-8---8--8--8--8--8--8-------------------------|
Gb|---------------------------------------------------------------------------|
Db|---------------------------------------------------------------------------|
Ab|---------------------------------------------------------------------------|
Eb|---------------------------------------------------------------------------|

If you can hold on 	  If you can hold on
eb|-------------------------------10-10-7-10------10-10-7-10------------------|
Bb|------------------------------------------8-8------------8-8---------------|
Gb|----7-7-4-7-0-0--7-7-4-7-0-0-----------------------------------------------|
Db|---------------------------------------------------------------------------|
Ab|---------------------------------------------------------------------------|
Eb|---------------------------------------------------------------------------|


eb|-7--7--7--7--7--7--7--7--7--7--7--77r-------------------------------------|
Bb|--8--8--8--8--8--8--8--8--8--8--8--8---------------------------------------|
Gb|---------------------------------------------------------------------------|
Db|---------------------------------------------------------------------------|
Ab|---------------------------------------------------------------------------|
Eb|---------------------------------------------------------------------------|


| /  slide up
| \  slide down
| h  hammer-on
| p  pull-off
| ~  vibrato
| +  harmonic
| x  Mute note
===============================================================================
Comments