Killers - All These Things That Ive Done Chords & Tabs

 

All These Things That Ive Done Chords & Tabs

Killers Chords & Tabs

Version: 3 Type: Bass Tab 0 ratings
1 star 2 stars 3 stars 4 stars 5 stars
comments

All These Things That Ive Done Bass Tab

   
All These Things That Ive Done Bass Tab by Killers, Tabbed by Alan Harrison

Noticed the other versions didn't sound right and its such a cracker song so
I tabbed it myself, first tab so hope its ok!!
Normal tuning
/=slide

Intro- No Bass Until guitar
Pre Verse/chorus
G-------------------------------------------------18-18-18-15-15-15-|
D-------------------------------------------------------------------|
A-9-9-9-9-9-9-9-9-9-9-9-9-9-9-9-9-9-9-9-9-9-9-9-9-------------------|
E-------------------------------------------------------------------|

G-------------------------------------------------------------------|
D-------------------------------------------------------------------|
A-2-2-2-2-2-2-2-2--2-2-2-2-2-2-2-2-9-9-9-9-9-9-9-9--9-9-9-9-9-9-9-9-|
9E------------------------------------------------------------------|

Riff A
G-------------|
D-------------|
A-------------|
E-9-9-9-5-6-5-| x4

Riff B
G-------------|
D-------------|
A-------------|
E-7-7-7-5-3-4-| x2

Riff A
G-------------|
D-------------|
A-------------|
E-9-9-9-5-6-5-| x6


G-------------------------------|
D-------------------------------|
A-------------------------------|
E-7-7-7-5-3-4-7-7-7-7-7-7-7-7-7-| x2


Chorus same as Pre verse
G-------------------------------------------------18-18-18-15-15-15-|
D-------------------------------------------------------------------|
A-9-9-9-9-9-9-9-9-9-9-9-9-9-9-9-9-9-9-9-9-9-9-9-9-------------------|
E-------------------------------------------------------------------|

G-------------------------------------------------------------------|
D-------------------------------------------------------------------|
A-2-2-2-2-2-2-2-2--2-2-2-2-2-2-2-2-9-9-9-9-9-9-9-9--9-9-9-9-9-9-9-9-|
E-------------------------------------------------------------------|

Riff A
G-------------|
D-------------|
A-------------|
E-9-9-9-5-6-5-| x4

Riff B
G-------------|
D-------------|
A-------------|
E-7-7-7-5-3-4-| x2

Riff A
G-------------|
D-------------|
A-------------|
E-9-9-9-5-6-5-| x2

Variation to the chorus
G-------------------------------------------------------------------|
D-------------------------------------------------------------------|
A-9-9-9-9-9-9-9-9-9-9-9-9-9-9-9-9-9-9-9-9-9-9-9-9-9-9-9-9-9-9-9-9-9-|
E-------------------------------------------------------------------|

G-------------------------------------------------------------------|
D-------------------------------------------------------------------|
A-2-2-2-2-2-2-2-2--2-2-2-2-2-2-2-2-9-9-9-9-9-9-9-9--9-9-9-9-9-9-9-9-|
E-------------------------------------------------------------------|

G-------------------------------------------------------------------|
D-------------------------------------------------------------------|
A-6-6-6-6-6-6-6-6--6-6-6-6-6-6-6-6-2-2-2-2-2-2-2-2--2-2-2-2-2-2-2-2-|
E-------------------------------------------------------------------|

[ Tab from: http://www.guitartabs.cc/tabs/k/killers/all_these_things_that_ive_done_btab_ver_3.html ]
Bridge-no bass until percussion
"I've got soul but i'm not soldier, i've got soul but i'm not a soldier..."
G--------------------------------------------------------------|
D--------------------------------------------------------------|
A-9/2--9/2--2/9--2/9--9/2--9/2-6-6-6-6-6-6-6-6-6-6-6-6-6-6-6-6-|
E--------------------------------------------------------------|

G-----------------------------------------------------------------|
D-----------------------------------------------------------------|
A-2-2-2-2-2-2-2-2-2-2-2-2-2-2-2-2-9-9-9-9-9-9-9-9-9-9-9-9-9-9-9-9-|
E-----------------------------------------------------------------|


G-------------------------------18-18-18-15-15-15-|
D-16-16-16-16-16-16-16-16-16-16-------------------|
A-------------------------------------------------|
E-------------------------------------------------|

Last chorus
G---------------------------------------------------------------------|
D---------------------------------------------------------------------|
A-9-9-9-9-9-9-9-9--9-9-9-9-9-9-9-9-9-9-9-9-9-9-9-9--9-9-9-9-9-9-9-9-9-|
E---------------------------------------------------------------------|

G-------------------------------------------------------18-18-18-15-15-15-|
D-------------------------------------------------------------------------|
A-2-2-2-2-2-2-2-2--2-2-2-2-2-2-2-2-9-9-9-9-9-9-9-9--9-9-------------------|
E-------------------------------------------------------------------------|

G-------------------------------------------------------------------|
D-------------------------------------------------------------------|
A-9-9-9-9-9-9-9-9--9-9-9-9-9-9-9-9-9-9-9-9-9-9-9-9--9-9-9-9-9-9-9-9-|
E-------------------------------------------------------------------|

G-------------------------------------------------------------------|
D-------------------------------------------------------------------|
A-2-2-2-2-2-2-2-2--2-2-2-2-2-2-2-2-9-9-9-9-9-9-9-9--9-9-9-9-9-9-9-9-|
E-------------------------------------------------------------------|

G----------------------------------------------------------------------------------|
D----------------------------------------------------------------------------------|
A-6-6-6-6-6-6-6-6--6-6-6-6-6-6-6-6-11-11-11-11-11-11-11-11-14-14-14-14-14-14-14-16-|
E----------------------------------------------------------------------------------|

Finish

G-------------------------------------------------------18-18-18-15-15-15-|
D-------------------------------------------------------------------------|
A-9-9-9-9-9-9-9-9--9-9-9-9-9-9-9-9-9-9-9-9-9-9-9-9--9-9-------------------|
E-------------------------------------------------------------------------|

G-------------------------------------------------------------------|
D-------------------------------------------------------------------|
A-6-6-6-6-6-6-6-6--6-6-6-6-6-6-6-6-6-6-6-6-6-6-6-6--6-6-6-6-6-6-6-6-|
E-------------------------------------------------------------------|

G-------------------------------------------------------------------------------------|
D-------------------------------------------------------------------------------------|
A-2-2-2-2-2-2-2-2--2-2-2-2-2-2-2-2-4-4-4-4-4-4-4-4--4-4-4-4-4-4-4-9-------------------|
E----------------------------------------------------------------------14----14----14-|

Voila, enjoy,
Feedback to alan_harrison_9@hotmail.com
Comments