Killers - All These Things That Ive Done Chords & Tabs

 

All These Things That Ive Done Chords & Tabs

Killers Chords & Tabs

Version: 2 Type: Bass Tab 0 ratings
1 star 2 stars 3 stars 4 stars 5 stars
comments

All These Things That Ive Done Bass Tab

   
Intro- No Bass Until Drums

Pre Verse
G---------------------------------11-11-11-9-9-9-7-7-7----|
D---------------------------------------------------------|
A-12-12-12-12-12-12-12-12-12-12---------------------------|
E---------------------------------------------------------|

G---------------------------------|
D---------------------------------|
A---------------------------------|
E-3-3-3-3-3-3-3-3-5-5-5-5-5-5-5---|

Verse Fig A
G--------------|
D--------------|
A--------------|
E-5-5-5-5-1-2-3-| x4

Verse Fig B
G--------------|
D--------------|
A--------------|
E-7-7-7-7-5-3-4-| x4
[ Tab from: http://www.guitartabs.cc/tabs/k/killers/all_these_things_that_ive_done_btab_ver_2.html ]
Chorus
G-------------------------------------------------------------|
D-------------------------------------------------------------|
A-12-12-12-12-12-12-12-12-12-12-12-12/------------------------|
E-----------------------------------------4-4-4-4-4-4-4-4-4/--|

G---------------------------|
D---------------------------|
A---------------------------|
E-17-17-17-17-17-17-17-17---|

Bridge
"I've got soul but i'm not soldier, i've got soul but i'm not a soldier..."
G-----------------------------------------------------|
D-----------------------------------------------------|
A-----------------------------------------------------|
E-4-4-4-4-4-4-4-4-8-8-8-8-8-8-8-8/-4-4-4-4-4-4-4-4----|

The ending I think is the same as the bridge, i'm not sure my speakers are weird sometimes.
Comments