Killers - All The Pretty Faces Chords & Tabs

 

All The Pretty Faces Chords & Tabs

Killers Chords & Tabs

Version: 1 Type: Bass Tab 0 ratings
1 star 2 stars 3 stars 4 stars 5 stars
comments

All The Pretty Faces Bass Tab

All the Pretty Faces


G|-------------------------------------|
D|--89898989(x16)---1111-5555-1111-5555|
A|-------------------------------------|
E|-------------------------------------|

G|-------------------------------------|
D|-1111-5555-1111-5555-----------------|
A|-------------------------------------|
E|-------------------------------------|

G|-------------------------------------|
D|-5-7-8/5-----6/3----345--------------|
A|------------6------------------------|
E|-------------------------------------|

G|--55-5--88-8-------------------------|
D|--------------66-6-66----------------|
A|-------------------------------------|
E|-------------------------------------|
                                                                                         
                                       X4
G|--55-5--77-7-------------------------|
D|--------------11-1-111---------------|
A|-------------------------------------|
E|-------------------------------------|

G|--1111--5555--1111--5555--1111--5555-|
D|-------------------------------------|
A|-------------------------------------|
E|-------------------------------------|

G|--8888888879/10-1010101010101010-----|
D|-------------------------------------|
A|-------------------------------------|
E|-------------------------------------|

G|--11/12-1212121212121212-------------|
D|-------------------------------------|
A|-------------------------------------|
E|-------------------------------------|

G|--151515151515151555555555-4/7/9----|
D|-------------------------------------|
A|-------------------------------------|
E|-------------------------------------|

G|--10101010/9\10101010----------------|
D|-------------------------------------|
A|-------------------------------------|
E|-------------------------------------|

G|----1088888888-8-8-8-8--------------|
D|--9----------------------------------|
A|-------------------------------------|
E|-------------------------------------|

G|--1515151515151515-------------------|
D|-------------------------------------|
A|-------------------------------------|
E|-------------------------------------|

G|--55-5--88-8-------------------------|
D|--------------66-6-66----------------|
A|-------------------------------------|
E|-------------------------------------|
                                                                                         
                                     X4
G|--55-5--77-7-------------------------|
D|--------------11-1-111---------------|
A|-------------------------------------|
E|-------------------------------------|

G|--1111--5555--1111--5555--1111--5555-|
D|-------------------------------------|
A|-------------------------------------|
E|-------------------------------------|
[ Tab from: http://www.guitartabs.cc/tabs/k/killers/all_the_pretty_faces_btab.html ]
G|--8888888879/10-1010101010101010-----|
D|-------------------------------------|
A|-------------------------------------|
E|-------------------------------------|

G|--11/12-1212121212121212-------------|
D|-------------------------------------|
A|-------------------------------------|
E|-------------------------------------|

G|--151515151515151555555555-4/7/9----|
D|-------------------------------------|
A|-------------------------------------|
E|-------------------------------------|

G|--10101010/9\10101010----------------|
D|-------------------------------------|
A|-------------------------------------|
E|-------------------------------------|

G|-12121212-12-12-1212-12-12-12-12----|
D|-------------------------------------|
A|-------------------------------------|
E|-------------------------------------|

G|--1515151515151515-------------------|
D|-------------------1010101010101010--|
A|-------------------------------------|
E|-------------------------------------|

G|----------------------9-10/12-------|
D|--12/8-10101010101010----------------|
A|-------------------------------------|
E|-------------------------------------|


G|---1212121212121212--1515151515151515|
D|-------------------------------------|
A|-------------------------------------|
E|-------------------------------------|

G|-55555555456/9-99999999010/12-------|
D|-------------------------------------|
A|-------------------------------------|
E|-------------------------------------|


G|-1212121212121212-15151515151515-----|
D|-------------------------------------|
A|-------------------------------------|
E|-------------------------------------|

G|-88888888-79/10-10101010-------------|
D|-------------------------------------|
A|-------------------------1010-88-----|
E|-------------------------------------|

G|----------12121212-12-12-12-12-12---|
D|--1010-8-----------------------------|
A|-------------------------------------|
E|-------------------------------------|

G|-1515151515151515--------------------|
D|-------------------------------------|
A|-------------------------------------|
E|-------------------------------------|

G|-55555555456/10-10101010---------8--|
D|------------------------------10-----|
A|-------------------------11-9--------|
E|-------------------------------------|

G|-1212121212121212--1515151515151515--|
D|-------------------------------------|
A|-------------------------------------|
E|-------------------------------------|

G|--55-5--88-8-------------------------|
D|--------------66-6-66----------------|
A|-------------------------------------|
E|-------------------------------------|
                                                                                         
                                   X4
G|--55-5--77-7-------------------------|
D|--------------11-1-111---------------|
A|-------------------------------------|
E|-------------------------------------|
Comments