Killer Of Saints - Venom Reserved Chords & Tabs

 

Venom Reserved Chords & Tabs

Killer Of Saints Chords & Tabs

Version: 1 Type: Tab 0 ratings
1 star 2 stars 3 stars 4 stars 5 stars
comments

Venom Reserved Tab

Tuning: 3 semitones down - C#,F#,B,E,G#,C# (Original demo version in standard tuning)
Timing NOT tabbed!
Amp settings Guitar 1 (Lead): Gain 10, Bass 6, Middle 3, Treble 7
Amp settings Guitar 2 (Rhythm): Gain 7, Bass 7, Middle 5, Treble 6
Both guitars on bridge humbucker, tone 10


Intro (Guitar 1)

C#|----------------------------------------------------------------------------|
G#|----------------------------------------------------------------------------|
E |----------------------------------------------------------------------------|
B |----------14----------------14----------------------------------------------|
F#|-12-14-15----15-14-12-14-15----15-14-12-14-15~ -----------------------------|
C#|----------------------------------------------------------------------------|


C#|----------------------------------------------------------------------------|
G#|----------------------------------------------------------------------------|
E |----------------------------------------------------------------------------|
B |----------14----------------14----------------------------------------------|
F#|----14-15----15-14----14-15----15-14----14-15~ -----------------------------|
C#|-13----------------13----------------13-------------------------------------|


Intro (Guitar 2)

C#|----------------------------------------------------------------------------|
G#|----------------------------------------------------------------------------|
E |----------------------------------------------------------------------------|
B |-7-7----------------------------------------3-3-----------------------------|
F#|-7-7----------------------------------------3-3-----------------------------|
C#|-5-5----------------------------------------1-1-----------------------------|
PM|.............................................................................


C#|----------------------------------------------------------------------------|
G#|----------------------------------------------------------------------------|
E |----------------------------------------------------------------------------|
B |-7-7-----------------------------------------3-3-3-3-3-3-3-3-3-3-3-3-3-3-3-3|
F#|-7-7-----------------------------------------3-3-3-3-3-3-3-3-3-3-3-3-3-3-3-3|
C#|-5-5-----------------------------------------1-1-1-1-1-1-1-1-1-1-1-1-1-1-1-1|
PM|.............................................................................



Bridge (Guitar 2)

C#|----------------------------------------------------------------------------|
G#|----------------------------------------------------------------------------|
E |----------------------------------------------------------------------------|
B |-7-7-7-7-7-7-7-7-7-7-7-7-7-7-7-7--3-3-3/10-10--3-3-3/10-10--3-3-3/10--------|
F#|-x-x-x-x-x-x-x-x-x-x-x-x-x-x-x-x--x-x-x/x--x---x-x-x/x--x---x-x-x/x---------|
C#|-5-5-5-5-5-5-5-5-5-5-5-5-5-5-5-5--1-1-1/8--8---1-1-1/8--8---1-1-1/8---------|



Verse (Guitars 1 and 2)

C#|----------------------------------------------------------------------------|
G#|----------------------------------------------------------------------------|
E |----------------------------------------------------------------------------|
B |-------7-------7-------7-------7-------3-------3-------3-------3------------|
F#|----------------------------------------------------------------------------|
C#|-5-5-5---5-5-5---5-5-5---5-5-5---1-1-1---1-1-1---1-1-1---1-1-1--------------|
PM|......   .....   .....   .....   .....   .....   .....   .....   

[ Tab from: http://www.guitartabs.cc/tabs/k/killer_of_saints/venom_reserved_tab.html ]
C#|----------------------------------------------------------------------------|
G#|----------------------------------------------------------------------------|
E |----------------------------------------------------------------------------|
B |-------7-------7-------7-------7-------3---------3~ ------------------------|
F#|----------------------------------------------------------------------------|
C#|-5-5-5---5-5-5---5-5-5---5-5-5---1-1-1---1-1-1-1----------------------------|
PM|......   .....   .....   .....   .....   .......



Chorus (Guitars 1 and 2)

C#|------0-0-------0-0-------0-0-------0-0-------0-0-------0-0---------0--0--0-|
G#|------0-0-------0-0-------0-0-------0-0-------0-0-------0-0---------0--0--0-|
E |------0-0-------0-0-------0-0-------0-0-------0-0-------0-0---------0--0--0-|
B |-7-7-------7-7-------3-3-------3-3-------7-7-------7-7-------10-10--10-10-10|
F#|-7-7-------7-7-------3-3-------3-3-------7-7-------7-7-------10-10--10-10-10|
C#|-5-5-------5-5-------1-1-------1-1-------5-5-------5-5-------8--8---8--8--8-|



Fill A (Guitar 2)

C#|----------------------------------------------------------------------------|
G#|----------------------------------------------------------------------------|
E |----------------------------------------------------------------------------|
B |---8^-----------------------------------------------------------------------|
F#|-----10-10-10-8-10----------------------------------------------------------|
C#|----------------------------------------------------------------------------|
PM      ........



Fill B (Guitar 2)

C#|----------------------------------------------------------------------------|
G#|----------------------------------------------------------------------------|
E |----------------------------------------------------------------------------|
B |---8^--------------8^---------------8^--------------------------------------|
F#|-----10-10-10-8h10---10-10-10-8h10----10-10-10-8h10-8h10p10h10p8h10p8h10-8^-|
C#|----------------------------------------------------------------------------|
PM      ........        ........         ........



Break (Guitar 1)

C#|----------------------------------------------------------------------------|
G#|----------------------------------------------------------------------------|
E |----------------------------------------------------------------------------|
B |-2-2-2-3-2~ -----(14)~ -----------------------------------------------------|
F#|-2-2-2-3-2~ ----------------------------------------------------------------|
C#|-0-0-0-3-0~ ----------------------------------------------------------------|
PM|   ...	     PH


Break (Guitar 2)

C#|----------------------------------------------------------------------------|
G#|----------------------------------------------------------------------------|
E |----------------------------------------------------------------------------|
B |-2-2-2-3-2~ ----------------------------------------------------------------|
F#|-2-2-2-3-2~ ----------------------------------------------------------------|
C#|-0-0-0-3-0~ -----(15)~ -----------------------------------------------------|
PM|   ...	     PH


Chorus Variation (Guitars 1 and 2)

C#|------0-0------0-0----------------------------------------------------------|
G#|------0-0------0-0----------------------------------------------------------|
E |------0-0------0-0----------------------------------------------------------|
B |-7-7-------7-7------3-3-3/10-10--3-3-3/10-10--3-3-3/10----------------------|
F#|-7-7-------7-7------x-x-x/x--x---x-x-x/x--x---x-x-x/x-----------------------|
C#|-5-5-------5-5------1-1-1/8--8---1-1-1/8--8---1-1-1/8-----------------------|



End

C#|----------------------------------------------------------------------------|
G#|----------------------------------------------------------------------------|
E |----------------------------------------------------------------------------|
B |-10~ -----------------------------------------------------------------------|
F#|-x ~ -----------------------------------------------------------------------|
C#|-8 ~ -----------------------------------------------------------------------|
Comments