Kill Kortney - Female Ejaculation Chords & Tabs

 

Female Ejaculation Chords & Tabs

Kill Kortney Chords & Tabs

Version: 1 Type: Tab 0 ratings
1 star 2 stars 3 stars 4 stars 5 stars
comments

Female Ejaculation Tab

Kill Kortney
Female Ejaculation

This song is awesome!!!!!
Here are the tabs:
[ Tab from: http://www.guitartabs.cc/tabs/k/kill_kortney/female_ejaculation_tab.html ]
INTRO(2x)
e-----------------------------------------------|
B---------------------------1-0-------0h1-1-0---|
G-------0-2-------0-2-----2---------2---------2-|
D-----2---------2-------2---------2-------------|
A---2---------2-------0---------0---------------|
E-0---------0-----------------------------------|

VERSE
e-----------------------------------------------|
B---------------------------1-0-------0h1-1-0---|
G-------0-2-------0-2-----2---------2---------2-| 
Comments