Kill Hannah - Unwanted Chords & Tabs

 

Unwanted Chords & Tabs

Kill Hannah Chords & Tabs

Version: 2 Type: Tab

Unwanted Tab

   
Kill Hannah  unwanted

Intro
Guitar 1 and 2
e|------------------------------------------------------------|
B|------------------------------------------------------------|
G|----------8/9\8-4/6----------8/9/11-4/6----------8/9\8-4/6--|
D|-66666666-x/x\x-x/x-66666666-x/x/x--x/--66666666-x/x\x--/x--|
A|-66666666-6/7\6-2/4-66666666-6/7/9--2/4-66666666-6/7\6-2/4--|
E|-44444444-----------44444444------------44444444------------|x1

Verse
Guitar 1
e|---------------------------------------------------|
B|---------------------------------------------------|
G|----------------8888888888888888-9999999999999999--|
D|-6~~~~----------xxxxxxxxxxxxxxxx-xxxxxxxxxxxxxxxx--|
A|-x~~~~-Let ring-6666666666666666-7777777777777777--|
E|-4~~~~---------------------------------------------|x2

Guitar 2
e|---------------------------------------------------|
B|---------------------------------------------------|
G|----------------8888888888888888-9999999999999999--|
D|-6*---2*--------xxxxxxxxxxxxxxxx-xxxxxxxxxxxxxxxx--|
A|-6*---2*--------6666666666666666-7777777777777777--|
E|-4*---0*-------------------------------------------|x2
   ^----^--Strum each note 16 times (palm mute)

Pre-chorus
Guitar 1 and 2
e|-------------------------------|
B|-------------------------------|
G|-9999-1111111-13131313-1414\---|
D|-xxxx-x-x-x-x-x-x-x-x--x-x\---|
A|-7777-9-9-9-9-1111111-1212\---|
E|-------------------------------|x1

Chorus
Guitar 1
e|-------------------------------------------------------------------|
B|-------------------------------------------------------------------|
G|-------------------------------------------------------------------|
D|-----------------15h16p15h16p15^-----------------15h16p15h16p15^---|
A|-13h15p13h15p13^-----------------13h15p13h15p13^-------------------|
E|-------------------------------------------------------------------|
[ Tab from: http://www.guitartabs.cc/tabs/k/kill_hannah/unwanted_tab_ver_2.html ]
e|-----------------------------------------------------------------------|
B|-----------------------------------------------------------------------|
G|-----------------------------------------------------------------------|
D|-----------------15h16p15h16p15^-----------------------15h16p15h16p15^-|
A|-13h15p13h15p13^-----------------13h15p13h15p13h15p13^-----------------|
E|-----------------------------------------------------------------------|
 Play it several times, somewhat fast and you can figure out the rhythm and timing
Guitar 2
e|---------------------------------------|
B|---------------------------------------|
G|---------------------------------------|
D|-99999999-88888888-66666666-22222222---|
A|-99999999-88888888-66666666-22222222---|
E|-77777777-66666666-44444444-00000000---|x4

Intro x1

Verse x2

pre-chorus
e|-----------------------------------------------------------|
B|-----------------------------------------------------------|
G|-/99-xx-/99-xx-/99-xx-/99-xx-9999-1111111-13131313-1414\---|
D|-/xx-xx-/xx-xx-/xx-xx-/xx-xx-xxxx-x-x-x-x-x-x-x-x--x-x\---|
A|-/77-xx-/77-xx-/77-xx-/99-xx-7777-9-9-9-9-1111111-1212\---|
E|-----------------------------------------------------------|x1

Chorus

Bridge
part 1
e|--------------------------------------------------|
B|--------------------------------------------------|
G|-16-16-16-15-15-15-------16-16-16-15-15-15--------|
D|-------------------16-16-------------------16-16--|
A|--------------------------------------------------|
E|--------------------------------------------------|

e|---------------------------|
B|---------------------------|
G|---------------------------|
D|-16p14-13h14-13------------|
A|----------------14-14------|
E|---------------------------|x2
part 2
e|----------------------------|
B|----------------------------|
G|-16-16-16-15-15-15----------|
D|-------------------16-16^~~-|
A|----------------------------|
E|----------------------------|

Play the chorus until the end

End on e|---|
       B|---|
       G|---|
       D|-9-|
       A|-9-|
       E|-7-|