Kill Hannah - Kennedy Chords & Tabs

 

Kennedy Chords & Tabs

Kill Hannah Chords & Tabs

Version: 1 Type: Tab 0 ratings
1 star 2 stars 3 stars 4 stars 5 stars
comments

Kennedy Tab

Artist-Kill Hannah
Song-Kennedy
Album-For Never And Ever          this band is from chicago actually
Tabber-Giulio                      they toured with H.I.M. in April 2004


KEY-       P\=pick slide       \=downslide
            /=upslide          *=mute

Intro is with the bass and Mat singing and what not

                              ~~~~*GUITAR 1*~~~~
-------------------------------------------------------------------------------
"..die young."(Prechorus)
|--------------------------------------------------------------|
|--------------------------------------------------------------|
|-8--8--8-8--8--8--8--8-8--8----------------6--6--6-6--6-------|
|-8--8--8-8--8--8--8--8-8--8--6--6--6-6--6--6--6--6-6--6-------|2x
|-6--6--6-6--6--6--6--6-6--6--6--6--6-6--6--4--4--4-4--4-------|
|-----------------------------4--4--4-4--4---------------------|

"I'll be brave.."(Chorus)
|-----------------------------------------------------------------------------|
|-----------------------------------------------------------------------------|
|-8-8-8-8-8-8-8-8-8-8-8-8-8-8-8-8-11-11-11-11-11-11-11-11-6-6-6-6-6-6-6-6-----|
|-8-8-8-8-8-8-8-8-8-8-8-8-8-8-8-8-11-11-11-11-11-11-11-11-6-6-6-6-6-6-6-6-----|2x
|-6-6-6-6-6-6-6-6-6-6-6-6-6-6-6-6--9--9--9--9--9--9--9--9-4-4-4-4-4-4-4-4-----|
|-----------------------------------------------------------------------------|

"Such romantic eyes.."
|-----------------------------------------------------------------|
|-----------------------------------------------------------------|
|-8-8-8-8-8-8-8-8-8-8-8-8-8-8-8-8-6-6-6-6-6-6-6-6-6-6-6-6-6-6-6-6-|
|-8-8-8-8-8-8-8-8-8-8-8-8-8-8-8-8-6-6-6-6-6-6-6-6-6-6-6-6-6-6-6-6-|
|-6-6-6-6-6-6-6-6-6-6-6-6-6-6-6-6-4-4-4-4-4-4-4-4-4-4-4-4-4-4-4-4-|
|-----------------------------------------------------------------|

"And if I had my chance.."

|--------------------------------------------------------------|
|--------------------------------------------------------------|
|----------------------------------6/8-8-6-8-8-6-6/8-8-6-8-8-6-|
|-6-6-6-6-6-6-6-6-8-8-8-8-8-8-8-8--6/8-8-6-8-8-6-6/8-8-6-8-8-6-|
|-6-6-6-6-6-6-6-6-8-8-8-8-8-8-8-8--4/6-6-4-6-6-4-4/6-6-4-6-6-4-|
|-4-4-4-4-4-4-4-4-6-6-6-6-6-6-6-6------------------------------|

|-----------------------------------|
|-----------------------------------|
|-----------------------------------|
|-6-6-6-6-6-6-6-6-8-8-8-8-8-8-8-8---|
|-6-6-6-6-6-6-6-6-8-8-8-8-8-8-8-8---|
|-4-4-4-4-4-4-4-4-6-6-6-6-6-6-6-6---|

"We die young.."(Prechorus)-see above

"I'll be brave.."(Chorus)-see above

"And if I had.."
-see above, repeat two times, then..

|---------------------------------------------------------------|
|---------------------------------------------------------------|
|-----------------------------------11-10--8--6-8--10--10-11-10-|
|-6-6-6-6-6-6-6-6-8-8-8-8-8-8-8-8-------------------------------|
|-6-6-6-6-6-6-6-6-8-8-8-8-8-8-8-8-------------------------------|
|-4-4-4-4-4-4-4-4-6-6-6-6-6-6-6-6-------------------------------|
[ Tab from: http://www.guitartabs.cc/tabs/k/kill_hannah/kennedy_tab.html ]
Bridge-

|-------------------------------|
|-------------------------------|
|--P\)--10--10--11---10---------|
|--P\)-------------------11-----|4x
|--slide-1st-time-only----------|
|-------------------------------|

"I'll be brave.."(Outro)

|---------------------------------------------------------------------------------|
|---------------------------------------------------------------------------------|
|-8-8-8-8-8-8-8-8-8-8-8-8-8-8-8-8-11-11-11-11-11-11-11-11-11-11-11-11-11-11-11-11-|
|-8-8-8-8-8-8-8-8-8-8-8-8-8-8-8-8-11-11-11-11-11-11-11-11-11-11-11-11-11-11-11-11-|
|-6-6-6-6-6-6-6-6-6-6-6-6-6-6-6-6--9--9--9--9--9--9--9--9--9--9--9--9--9--9--9--9-|
|---------------------------------------------------------------------------------|

|-6-6-6-6-6-6-6-6-6-6-6-6-6-6-6-6-8-8-8-8-8-8-8-8-8-8-8-8-8-8-8-8-*
|-6-6-6-6-6-6-6-6-6-6-6-6-6-6-6-6-8-8-8-8-8-8-8-8-8-8-8-8-8-8-8-8-*"Go.."
|-4-4-4-4-4-4-4-4-4-4-4-4-4-4-4-4-6-6-6-6-6-6-6-6-6-6-6-6-6-6-6-6-*


                              ~~~~*GUITAR 2*~~~~
-------------------------------------------------------------------------------
Prechorus-

|--------------------|
|--------------------|
|-8---8-8---8---*----|7x
|--------------------|
|--------------------|
|--------------------|

Chorus-

|----------------------          |-------------------------|
|----------------------          |-------------------------|
|-10--10--11---10------          |-10--10--11---10---------|
|------------------11/8--->3x    |------------------11-----|3x
|----------------------          |-------------------------|
|----------------------          |-------------------------|

"And if I had.."


|--------------------------------------------|
|--------------------------------------------|
|-10-10-10-11--10--8--6--11-10--8--6--8~-----|3x
|--------------------------------------------|
|--------------------------------------------|
|--------------------------------------------|

Prechourus-see above
Chorus-see above

Bridge-

|---------------------------------------------------------------------------------------|
|---------------------------------------------------------------------------------------|
|-8*-8*-8-8-8-8-8-8-8-8-8-8-8-8-8-8-8-8-11-11-11-11-11-11-11-11-11-11-11-11-11-11-11-11-|
|-8*-8*-8-8-8-8-8-8-8-8-8-8-8-8-8-8-8-8-11-11-11-11-11-11-11-11-11-11-11-11-11-11-11-11-|
|-6*-6*-6-6-6-6-6-6-6-6-6-6-6-6-6-6-6-6--9--9--9--9--9--9--9--9--9--9--9--9--9--9--9--9-|
|---------------------------------------------------------------------------------------|

|-----------------------------------------------------------------|
|-----------------------------------------------------------------|
|-6-6-6-6-6-6-6-6-6-6-6-6-6-6-6-6-8-8-8-8-8-8-8-8-8-8-8-8-8-8-8-8-|
|-6-6-6-6-6-6-6-6-6-6-6-6-6-6-6-6-8-8-8-8-8-8-8-8-8-8-8-8-8-8-8-8-|
|-4-4-4-4-4-4-4-4-4-4-4-4-4-4-4-4-6-6-6-6-6-6-6-6-6-6-6-6-6-6-6-6-|
|-----------------------------------------------------------------|

Outro-see chorus


well hope it works you, it worked for me :-)
Comments