Kill Hannah - Kennedy Chords & Tabs

 

Kennedy Chords & Tabs

Kill Hannah Chords & Tabs

Version: 1 Type: Bass Tab 0 ratings
1 star 2 stars 3 stars 4 stars 5 stars
comments

Kennedy Bass Tab

VERSE:
16th notes with weird distortion
|---------------------------------|---------------------------------|
|---------------------------------|---------------------------------|
|-6-6-6-6-6-6-6-6-6-6-6-6-6-6-6-6-|-6-6-6-6-6-6-6-6-6-6-6-6-6-6-6-6-|
|---------------------------------|---------------------------------|


|---------------------------------|---------------------------------|
|---------------------------------|---------------------------------|
|-6-6-6-6-6-6-6-6-6-6-6-6-6-6-6-6-|-6-6-6-6-6-6-6-6-6-6-6-6-6-6-6-6-|
|---------------------------------|---------------------------------|


|---------------------------------|---------------------------------|
|---------------------------------|---------------------------------|
|---------------------------------|---------------------------------|
|-4-4-4-4-4-4-4-4-4-4-4-4-4-4-4-4-|-4-4-4-4-4-4-4-4-4-4-4-4-4-4-4-4-|

|---------------------------------|---------------------------------|
|-6-6-6-6-6-6-6-6-6-6-6-6-6-6-6-6-|-6-------------------------------|
|---------------------------------|---------------------------------|
|---------------------------------|---------------------------------|
                                    .




PRECHORUS:
8th notes
|---------------------------------|---------------------------------|
|---------------------------------|---------------------------------|
|-6-6-6-6-6-6-6-6-6-6-6-6-6-6-6-6-|-----------------4-4-4-4-4-4-4-4-|
|---------------------------------|-4-4-4-4-4-4-4-4-----------------|

|---------------------------------|---------------------------------|
|---------------------------------|---------------------------------|
|-6-6-6-6-6-6-6-6-6-6-6-6-6-6-6-6-|-----------------4-4-4-4--6/-6/--|
|---------------------------------|-4-4-4-4-4-4-4-4-----------------|





CHORUS:
|---------------------------------|---------------------------------|
|---------------------------------|---------------------------------|
|-6-6-6-6-6-6-6-6-6-6-6-6-6-6-6-6-|-9-9-9-9-9-9-9-9-4-4-4-4-4-4-4-4-|
|---------------------------------|---------------------------------|

|---------------------------------|---------------------------------|
|---------------------------------|---------------------------------|
|-6-6-6-6-6-6-6-6-6-6-6-6-6-6-6-6-|-9-9-9-9-9-9-9-9-4/6666/-4/6666/-|
|---------------------------------|---------------------------------|
[ Tab from: http://www.guitartabs.cc/tabs/k/kill_hannah/kennedy_btab.html ]
|---------------------------------|---------------------------------|
|---------------------------------|---------------------------------|
|-6-6-6-6-6-6-6-6-6-6-6-6-6-6-6-6-|-4-4-4-4-4-4-4-4-4-4-4-4-4-4-4-4-|
|---------------------------------|---------------------------------|

|---------------------------------|---------------------------------|
|---------------------------------|---------------------------------|
|-----------------4-4-4-4-4-4-4-4-|-4/6-6--4--6-6-4-4/6-6--4--6-6---|
|-4-4-4-4-4-4-4-4-----------------|---------------------------------|

|-----------------4///-|
|-4-4-4-4-4-4-4-4------|







POST CHORUS:
16th notes
|---------------------------------|---------------------------------|
|---------------------------------|---------------------------------|
|-6-6-6-6-6-6-6-6-6-6-6-6-6-6-6-6-|-6-6-6-6-6-6-6-6-6-6-6-6-6-6-6-6-|
|---------------------------------|---------------------------------|

|---------------------------------|---------------------------------|
|---------------------------------|---------------------------------|
|-6-6-6-6-6-6-6-6-6-6-6-6-6-6-6-6-|-6-------------------------------|
|---------------------------------|---------------------------------|
                                    .





 BRIDGE:
8th notes
|---------------------------------|---------------------------------|
|---------------------------------|---------------------------------|
|-6-6-6-6-6-6-6-6-6-6-6-6-6-6-6-6-|-9-9-9-9-9-9-9-9-9-9-9-9-9-9-9-9-|
|---------------------------------|---------------------------------|

|---------------------------------|---------------------------------|
|---------------------------------|---------------------------------|
|---------------------------------|-4-4-4-4-4-4-4-4-4-4-4-4-4-4-4-4-|
|-4-4-4-4-4-4-4-4-4-4-4-4-4-4-4-4-|---------------------------------|




OUTRO:
8th notes
|---------------------------------|---------------------------------|
|---------------------------------|---------------------------------|
|-6-6-6-6-6-6-6-6-6-6-6-6-6-6-6-6-|-9-9-9-9-9-9-9-9-9-9-9-9-9-9-9-9-|
|---------------------------------|---------------------------------|

|---------------------------------|---------------------------------|
|---------------------------------|---------------------------------|
|---------------------------------|-4-4-4-4-4-4-4-4-4-4-4-4-4-4-4-4-|
|-4-4-4-4-4-4-4-4-4-4-4-4-4-4-4-4-|---------------------------------|

end on
|----|
|----|
|-6~-|
|----|




SONG STRUCTURE

verse-2x
prechorus-1x
chorus-1x
postchorus-1x
verse-2x
prechorus-1x
chorus-1x
bridge-1x
outro-1x
Comments