Kill Bill Soundtrack - Battle Without Honour Or Humility Chords & Tabs

 

Battle Without Honour Or Humility Chords & Tabs

Kill Bill Soundtrack Chords & Tabs

Version: 1 Type: Tab 0 ratings
1 star 2 stars 3 stars 4 stars 5 stars
comments

Battle Without Honour Or Humility Tab

Battle Without Honour or Humility - Tomayasu Hotei
From Kill Bill Vol. 1

Tabbed by - The FLE5H CR1M1NAL

  

Main Guitar part - heavy palm muting
                               
E||-----------------------------||
B||-----------------------------||
G||-----------------------------||
D||--0h2------------------------||
A||------2--2--2-2-2-2-2--2--2--||
E||------0--0--0-0-0-0-0--0--0--||
       
Loud Part (0:20)

||-----------------------||
||-----------------------||
||--12------14------9----||
||--12------14------9----||
||--10------12------7----||
||-----------------------||
[ Tab from: http://www.guitartabs.cc/tabs/k/kill_bill_soundtrack/battle_without_honour_or_humility_tab.html ]
Lead (0:42)
||--19----------------|--19h-17--15----17--------|--17h-15--14----12--------|
||--------------------|--------------------------|--------------------------|
||--------------------|--------------------------|--------------------------|
||--------------------|--------------------------|--------------------------|
||--------------------|--------------------------|--------------------------|
||--------------------|--------------------------|--------------------------|


                                                                 
--15--------19----17----|------------------|--19----------------|
------------------------|------------------|--------------------|
------------------------|------------------|--------------------|
------------------------|------------------|--------------------|
------------------------|------------------|--------------------|
------------------------|------------------|--------------------|


                                                                                
--19h-17--15----17--------|--17h-15--14----12--------|--15--------------------||
--------------------------|--------------------------|------------15----14----||
--------------------------|--------------------------|------------------------||
--------------------------|--------------------------|------------------------||
--------------------------|--------------------------|------------------------||
--------------------------|--------------------------|------------------------||


Comments